Guitar Tabs, Chords and Lyrics
Major upgrade!! After one year development the new version of Chordie is now online! Please give feedback.


Fat Old Sun  Pink Floyd

Transcribed by: Tim (captain_turtle@hotmail.com)
Corrected by : Cha (sachmoul@hotmail.com) 15.03.06
FAT OLD SUN
Pink Floyd
"Atom Heart Mother"
(Gilmour)
(Bells chime for a few seconds)
[G] [G]  
[G]When that fat old sun in the [D]sky is falling
[F]Summer evening b[C]irds are calling[G]
[G]Summer sunday a[D]nd a year
[F]The sound of music i[C]n my ears[G] [G]
[G]Distant bells, [D]new mown grass [F]smells so sweet[C]
[G]By the river [D]holding hands
[F]Roll me up and l[C]ay me down[G]
And if you[C] see, don't[Bm] make a sound.[Am7]
Pick your feet up of[G]f the ground
And if you [C]hear as the w[Bm]arm night falls[Am7]
A silver sound from a t[Dm]ongue so strange
[Gm]Sing to me, [Dm]Sing to me...
[F] [D]  
When that [G]fat old sun in the [D]sky is falling
[F]Summer evening b[C]irds are calling[G]
[G]Children's laughter [D]in my ears
[F]The last sunlight d[C]isappears[G]
And if you [C]see, do[Bm]n't make a sound[Am7]
Pick your feet up [G]off the ground
And if you h[C]ear as the w[Bm]arm night falls[Am7]
A silver sound from a to[Dm]ngue so strange
[Gm]Sing to me, [Dm]Sing to me...
[F] [D]  
G(Solo)
When that fat old sun...
Solo pattern : G D F C
SOLO:
[G] [D] [F]  
 
 e-|---------------------------------------------------------|
 B-|---------------------------------------------------------|
 G-|---------------------------------------------------------|
 D-|---------------------------------7--7--7h9---------------|
 A-|-------------5--5h7--5---7--7/9------------8---10--10/12-|
 E-|--3----5--7----------------------------------------------|

[C]  
 
 e-|---------------------------------------------------------|
 B-|---------------------------------------------------------|
 G-|------10--10-----------------12-----12h14p12-------------|
 D-|--10--10--10h12--10---12/14-----14-----------14--12/14---|
 A-|---------------------------------------------------------|
 E-|---------------------------------------------------------|

[G] [D]  
 
 e-|---------------------------------------------------------|
 B-|---------------------------------------------------------|
 G-|---------------------------------------------------------|
 D-|--12--10-----------------------------12--12--12h14--12---|
 A-|-----------12--10h12--10---12--12/14---------------------|
 E-|---------------------------------------------------------|

[F] [C]  
 
 e-|---------------------------------------------------------|
 B-|---------------------------------------------------------|
 G-|------------14--14--14h16--------------------------------|
 D-|--14--14/16----------------15-14~--10--10h12--10h12--10--|
 A-|---------------------------------------------------------|
 E-|---------------------------------------------------------|

[G] [D]  
 
 e-|---------------------------------------------------------|
 B-|---------------------------------------------------------|
 G-|---------------------------------------------------------|
 D-|--5/7----5-----------------------------------------------|
 A-|-----------7--5---------------------5--5h7--5h7--5-------|
 E-|-----------------8\5\3--1/3--5--5h7----------------------|

[F]  
 
 e-|---------------------------------------------------------|
 B-|---------------------------------------------------------|
 G-|---------------------------------------------------------|
 D-|-------7h9--9b(10)b9--7--9--7--9---10--(10)-10h12--10h12-|
 A-|--7/9----------------------------------------------------|
 E-|---------------------------------------------------------|

[C] [G]  
 
 e-|---------------------------------------------------------|
 B-|---------------------------10----------------------------|
 G-|---------------------------10-----10---------------------|
 D-|--10h12--12b(14)--10--10---10h12--10-----5---------------|
 A-|----------------------------------10h12--5h7--5--X3--5---|
 E-|---------------------------------------------------------|

[D] [F]  
 
 e-|---------------------------------------------------------|
 B-|---------------------------------------------------------|
 G-|---------------------------------------------------------|
 D-|---------------------------------------------------------|
 A-|---3\2--2--0--0h2--0h2--2b(3)-2--0--2-------------8h10---|
 E-|---------------------------------------1----3/5----------|

[C]  
 
 e-|---------------------------------------------------------|
 B-|---------------------------------------------------------|
 G-|----------------------------------------12------12h14----|
 D-|--------10h12--10h12---12--10----12/14------14-----------|
 A-|-10/12---------------------------------------------------|
 E-|---------------------------------------------------------|

[G]  
 
 e-|---------------------------------------------------------|
 B-|---------------------------------------------------------|
 G-|--12b(14)--12b(14)--12--14b(16)====(16)--(16)r14---12h14-|
 D-|---------------------------------------------------------|
 A-|---------------------------------------------------------|
 E-|---------------------------------------------------------|

[D] [F]  
 
 e-|---------------------------------------------------------|
 B-|---------------------------------------------------------|
 G-|-14b(16)--14-14~---(16)r14b(17)14---14b(17)---14-14------|
 D-|---------------------------------------------------------|
 A-|---------------------------------------------------------|
 E-|---------------------------------------------------------|

[C]  
 
 e-|---------------------------------------------------------|
 B-|---------------------------------------------------------|
 G-|-14b(16)r14--14-14-14--12-12---12------------------------|
 D-|------------------------------------12/14--14--14\12--12-|
 A-|---------------------------------------------------------|
 E-|---------------------------------------------------------|

G ...
 
 e-|---------------------------------------------------------|
 B-|---------------------------------------------------------|
 G-|---------------------------------------------------------|
 D-|--12h14--12--12h14---------------------------------------|
 A-|-------------------14\12--10h12-10h12-10-----------------|
 E-|------------------------------------------12\10-10h12-10-|
 e-|---------------------------------------------------------|
 B-|---------------------------------------------------------|
 G-|---------------------------------------------------------|
 D-|----------------12----12--14--14b(16)--14--12\-----------|
 A-|---------12-14-----14------------------------------------|
 E-|--12/14--------------------------------------------------|
 e-|------------------------|
 B-|------------------------|
 G-|--2~-1--2~--2p1h2p1h2---|
 D-|------------------------|
 A-|------------------------|
 E-|------------------------|
 e-|--------------------------------------------------------|
 B-|--------------------------------------------------------|
 G-|-----------------------------------5p4--4---------------|
 D-|--3/5--5--3\2--2--------------------------5-------------|
 A-|-----------------3---3--3h5--5~---------------5---------|
 E-|--------------------------------------------------------|
 e-|---------------------------------------------------------|
 B-|---------------------------------------------------------|
 G-|----------------------7--9--9b(10)r9--7~---7h9--9b(10)---|
 D-|------------------7h9------------------------------------|
 A-|--5h7---5h7---7/9----------------------------------------|
 E-|---------------------------------------------------------|
 e-|---------------------------------------------------------|
 B-|---------------------------------------------------------|
 G-|--9b(10)====r9---(10)==r9--(10)==r9--(10)r9~-------------|
 D-|----------------------------------------------10---------|
 A-|-------------------------------------------------10------|
 E-|---------------------------------------------------------|
 e-|---------------------------------------------------------|
 B-|---------------------------------------------------------|
 G-|---------------------------------------------------------|
 D-|--------10------10h12--12--12--10p9----------------------|
 A-|-10/12------12----------------------10--10--10/12--12----|
 E-|---------------------------------------------------------|
 e-|---------------------------------------------------------|
 B-|-----------------------------------------------10--------|
 G-|---------------------------------10-----10-----10--------|
 D-|---------------------------------10h12--10h12------------|
 A-|--10p9--9---5--5--7--7/8====/12--------------------------|
 E-|---------------------------------------------------------|

^slowly fade out...^
 
 e-|---------------------------------------------------------|
 B-|--10-----10-----10--------------------------------x------|
 G-|--10h12--10h12--10---(10/12)--------3b(5)==r3-----x------|
 D-|-----------------------------x----------------5----------|
 A-|---------------------------------------------------------|
 E-|---------------------------------------------------------|
 e-|-------13----------17b(18)-------------------------------|
 B-|-13h16----16b(18)--17b(19)--x----------------------------|
 G-|----------------------------x------------------10--10----|
 D-|-----------------------------------------10h12-----------|
 A-|-----------------------------------10/12-----------------|
 E-|---------------------------------------------------------|
 e-|---------------------------------------------------------|
 B-|---------------------------------------------------------|
 G-|-9-10-9--------------------------------------------------|
 D-|---------10-----------10----10h12...---------------------|
 A-|------------10--10/12----12------------------------------|
 E-|---------------------------------------------------------|


Important: The song above is NOT stored on the Chordie server. The original song is hosted at www.guitaretab.com. Chordie works as a search engine and provides on-the-fly formatting. Chordie does not index songs against artists'/composers' will. To remove this song please click here.

Text color:
Chord color:
Chord grids: 
Font size:    
Page size: 

Am7 Bm C D Dm F G Gm
Rate #0 of 6 versions

Jango Player

Login - add to songbook

SHARE PAGE  




You need to log in to post comments