Guitar Tabs, Chords and Lyrics
Server problems seems to be fixed. Chordie has been experiencing problems with songs disappearing. These issues now seems to be fixed, but still verifying the fix. If you find anything strange, please email admin@chordie.com.


Time  Pink Floyd

Intro Listen to song for time (no pun intended)-wow.
 
 e|---------------------------------------------------------------------------|
 B|---------------------------------------------------------------------------|
 G|---------------------------------------------------------------------------|
 D|-------------------------------------------------------------2-------------|
 A|-----------------------------------------------------------2---2-----------|
 E|-0~-----2~-----0~-----2~-----0~---0-1-0-2~----0~----0-1-2~-------2~--------|
 e|-------------------------------------------------------------------|
 B|-----------------------------------------------------------------------|
 G|---------------------------------------------------------------------------|
 D|---------------------------------------------------------------------------|
 A|---------------------------------------------------------------------------|
 E|-2~-----5~---------------3-2-0~-------------------0-1-0-2~-----------------|

Drum Fill
Verse Riff A
 
 e|--------------------------------------------------------5------------------|
 B|--------------------------------------------------------5------------------|
 G|-----------------------------------------6--------------6---7-6-----6------|
 D|-4---------------------------------------7--------7---7-----7-7-----7------|
 A|-4---------------------------------------7--------7---------7-7-----7------|
 E|-2---------------------------------------5--------5---------5-5---5--------|

Ticking away the moments that make up a dull day
Riff B Riff C Riff D Riff E
 
 e|----0-0---0-0------------------|--9-9-9-7-5-|------------------------------|
 B|----0-0---0-0-------2----------|------------|--12-10-8-7---7-5-3-2---------|
 G|----1-1---1-1-------4^6-4p2--2-|--9-9-9-7-6-|------------------------------|
 D|-2------2------2-2---------4--4|------------|--12-11-9-7---7-5-4-2---------|
 A|-2------2------2-2-------------|------------|------------------------------|
 E|-0------0------4-4-------------|------------|------------------------------|

Verse
F#min Amj Riff A
Ticking away the moments that make up a dull day
Emj F#min RiffB
Fritter and waste the hours in an off hand way
F#min Amj Riff C
Kicking around on a piece of ground in your hometown
[Emj]Waiting for someone or something to show you the [F#min]way
Chorus
[Dmj7]Tired of lying in the sunshine [Amj7]staying home to watch the rain.
[Dmj7]You are young and life is long and [Amj7]there is time to kill today.
[Dmj7]And then one day you find [C#min]ten years have got behind you.
[Bmin]No one told you when to run,[G] [F#] [E] you missed the starting gun.
Solo
 
 e|----------------------------------------------------5-5--------------------|
 B|--------------------------------------------5-5-5h7-----7^8r7--------------|
 G|------4^6r4--2-4^6-4^6r4p2-4^6-4---------4/6-------------------------------|
 D|--4~-----------------------------4^6---------------------------------------|
 A|---------------------------------------------------------------------------|
 E|---------------------------------------------------------------------------|
 e|--------------------------9---9^10r9---------------------------------------|
 B|-------------------------------------10^12---10-9--------------------------|
 G|---4^6--4^6r4-2-4^6---7/9-------------------------9^10-9/11----------------|
 D|-4-------------------------------------------------------------------------|
 A|---------------------------------------------------------------------------|
 E|---------------------------------------------------------------------------|
 e|-------------------17----------------------------------------------------------------|
 B|----------14-17^19---^19--17-17----------------------------------17-17---------------|
 G|-------14-----------------------16^18--16^19-19-19r18r16-16-16--------16~-14~--------|
 D|-14/16------------------------------------------------------------------------16~----|
 A|-------------------------------------------------------------------------------------|
 E|-------------------------------------------------------------------------------------|
 e|-----17^19-17---------------------------------------------19^21-21-19--19--|
 B|--------------17^19~--17-17----------------------------17------------------|
 G|-14-------------------------16^18r16-14-16-14-16^18~-----------------------|
 D|---------------------------------------------------------------------------|
 A|---------------------------------------------------------------------------|
 E|---------------------------------------------------------------------------|
 e|--17-14-----------14-------------------------------------------------------|
 B|---------17-14--17---17\14-17\14-------------------------------------------|
 G|-------------------------------------------------14/16\14---13/14\13\9~----|
 D|-----------------------------------------7/12-12---------------------------|
 A|--------------------------------------/9-----------------------------------|
 E|---------------------------------------------------------------------------|
 e|---------------------------------------------------------------------------|
 B|---------------------------------------------------------------------------|
 G|-11/13-13^14--11\9/11--9\6-9\6-6^7-6-4-2-4~--2-------4---------------------|
 D|-------------------------------------------------4/6---6p4p2~--------------|
 A|---------------------------------------------------------------------------|
 E|---------------------------------------------------------------------------|

Verse 2
F#min Amj Riff E
So you run and you run to catch up with the sun but it's sinking
Emj F#min Riff B
Racing around to come up behind you again.
F#min Amj Riff D
The sun is the same in a relative way but you're older,
[Emj]Shorter of breath and one day closer to [F#min]death.
[Dmj7]Every year is getting shorter [Amj7]never seem to find the time.
[Dm7]Plans that either come to naught or [Amj7]half a page of scribbled lines
[Dm7]Hanging on in quiet desper[C#min]ation is the English way
[Bmin]The time is gone, the song is over,
[Bmin7]Thought I'd something [Fmj]more to say.
(Breathe Reprise)
Intro and Verse
[Em] [Amj] [Asus2] [A7]  
 
 e|----0-----------0----------------------------------------------------------|
 B|-----0----------0---2-2---3-2--2-2-----------------------------------------|
 G|------0---------0---2-2---2-2--0-0-----------------------------------------|
 D|-------2------------2-2---2-2--2-2-----------------------------------------|
 A|--------2-----------0-0-0--------------------------------------------------|
 E|-0-------0----0------------------------------------------------------------|

Chorus
[Cmj7]Far away across the field
[Bmin7]The tolling of the iron bell
[Fmj7]Calls the faithful to their knees
[G]To hear the softly [D7#9]spoken [D7b9]magic [Bm]spells.
Bm leads into Great Gig in the Sky
================================ TAB Legend ===================================
| / slide up
| \ slide down
| h hammer-on
| p pull-off
| b bend note
| ~ vibrato
| H harmonic
| PH pinch harmonic
| x Muted string
========================= http://tabs.guitarworld.com =========================

Important: The song above is NOT stored on the Chordie server. The original song is hosted at www.guitaretab.com. Chordie works as a search engine and provides on-the-fly formatting. Chordie does not index songs against artists'/composers' will. To remove this song please click here.

Text color:
Chord color:
Chord grids: 
Font size:    
Page size: 

A7 Asus2 Bm Bmin Bmin7 C#min D7#9 D7b9 Dm7 E Em F# F#min G
Rate #7 of 8 versions

Jango Player

Login - add to songbook

SHARE PAGE  




You need to log in to post comments