Guitar Tabs, Chords and Lyrics
Major upgrade!! After one year development the new version of Chordie is now online! Please give feedback.


The Fletcher Memorial Home  Pink Floyd

 
 -------------------------------------------------------------------------------

The Fletcher Memorial Home
As recorded by Pink Floyd
 
 -------------------------------------------------------------------------------

Tabbed by:Guitar kid
Email:pinkfloyd95@yahoo.com
Tuning: Standard
I decided to tab this song because its just an amazing song written by the
amazing Roger Waters, and it has in my opinion one of the best David Gilmour
solos, and plus i saw that they didnt have a good tab of this song.
Well Enjoy!
Chords used:
C G/B Am D F#aug/A# Bm Em C/E
x32010 x20003 x02210 xx0232 x10332 x24432 022000 032010
2[D/F#]0023x 32[G]0033 [Cmaj7]x32000 x[G7/B]20001 x[D/C]30232 0[Esus2]79977 02[Em7]2033 xx[D7]0212
x42220[A7/C#] or x42222
Take all your overgrown i[C]nfants away som[G/B]ewhere
Am D F#aug/A# Bm
and build them a home, a little place of their own, the
[Em]Fletcher Memorial H[C]ome for incurable [D]tyr[C/E]ant, [D/F#]and ki[G]ng. And
they can appear t[G7/B]o themse[C]lves every da[G/B]y, on cl[Am]osed circuit
D F#aug/A# Bm
T.V. To make sure they're still real.
[C]It's the only connec[D]tion they fee[Em]l.
"Ladies and gentlemen, please welcome......[Cmaj7]............Reagan and Haig,
Mr.Begin and friend,...............[D/C]..........Mrs. T[D]hatcher and Paisley,
[Cmaj7]Mr.Brezhnev and party,...........................the ghost of McCarthy
and the memories of Nixon.......................And[D] now, adding c[D7/F#]olour,
[G] [D/F#]a group of anonymous Latin Amer[C]ican meat packing glitterati."
D[Em]id they expect us to treat them with any respec[D]t? they can po[G]lish their
[D/F#]medals and sha[C]rpen their smiles, and amu[G]se themselv[D/F#]es, playing ga[C]mes for a
whil[G]e. Boom boo[D/F#]m, bang bang[C], lie down, you're dea[Esus2]d
Solo:With distortion and chorus
 
 e|---------------------------------------------------------------------------|
 B|------/15------------------------------------------------------------------|
 G|--12-----------------------------14bp12-----------------------2bph---------|
 D|---------------------------------------14-------------------2--------------|
 A|---------------------------------------------------------------------------|
 E|---------------------------------------------------------------------------|
 e|-------------------------------------------------------------15--------------|
 B|-------------------/15------------12--15---15b-----15b--------------15b------|
 G|----------------12-----------------------------------------------------------|
 D|-----------------------------------------------------------------------------|
 A|-----------------------------------------------------------------------------|
 E|--x-/12----------------------------------------------------------------------|
 e|-----------------------------------------------------------------------------|
 B|-----------------------------------------------------------------------------|
 G|-----------------------------------------------------------------------------|
 D|---------------5---7b---7b--------5--7--7b--------5---7----------------------|
 A|-----------7-------------------7---------------------------------------------|
 E|---x\----------------------------------------------------------/12-----7\----|
 e|-----------------------------------------------------------------------------|
 B|-----------------------------------------------------------------------------|
 G|--------12^14----14b---14---12------14p12-----14b---------14------12---------|
 D|---14------------------------------------------------------------------------|
 A|-----------------------------------------------------------------------------|
 E|-----------------------------------------------------------------------------|
 e|----------------------14-15---17--15---------------------------------------|
 B|--------------12--15-------------------------------------------------------|
 G|-----12-11-12--------------------------------------11b---------------------|
 D|---------------------------------------------------------------------------|
 A|---------------------------------------------------------------------------|
 E|---------------------------------------------------------------------------|

[G]Safe in the permanent gaz[C]e of a cold [Bm]glass e[Am]ye, their favorite to[D]y,
F#aug/A# Bm A/C# D Em
they'll be good girls and boys in the Fletcher Memorial
C D Em7 D/F# G D/F$ C
Home for colonial wasters of life and limb. Is everyone in? Are you
[G]having a [D/F#]nice time[C]? No[G]w the [D/F#]final sol[C]ution can be applie[Esus2]d
key:
 
 /----------------------------slide 0-22-|
 b---------------------------------------|bend
 p---------------------------------------|pulloff
 ph--------------------------------------|pinch harmonic or pinch squeel
 x---------------------------------------|fret mute
 \----------------------------slide 22-0-|
 ^---------------------------------------|hammer on


Important: The song above is NOT stored on the Chordie server. The original song is hosted at www.guitaretab.com. Chordie works as a search engine and provides on-the-fly formatting. Chordie does not index songs against artists'/composers' will. To remove this song please click here.

Text color:
Chord color:
Chord grids: 
Font size:    
Page size: 

A7/C# Am Bm C C/E Cmaj7 D D/C D/F# D7 D7/F# Em Em7 Esus2 G G/B G7/B
Rate #1 of 3 versions

Login - add to songbook

SHARE PAGE  



You need to log in to post comments