Guitar Tabs, Chords and Lyrics
Major upgrade!! After one year development the new version of Chordie is now online! Please give feedback.


Not Now John   Pink Floyd

 
 e|------------------------------15-----------------------------------------|
 B|--------17-b-18.5-------17b18----17b18r17--------------------------------|
 D|-------------------------------------------------------------------------|
 A|-------------------------------------------------------------------------|
 E|-------------------------------------------------------------------------|
 e|-------------------------------------------------------------------------|
 B|-------------------------------------------------------------------------|
 D|-------------------------------h14~~--X-14-12-14-12-12-12--\\\\----------|
 A|-------------------------------------------------------------------------|
 E|-------------------------------------------------------------------------|
 e|-----------------------15-15/17-15---------------------------------------|
 B|--------------------17-------------17p15h17-15b16r15-17------------------|
 D|-------------------------------------------------------------------------|
 A|-------------------------------------------------------------------------|
 E|-------------------------------------------------------------------------|
 e|-------------------------------------------------------------------------|
 B|---17--------------------------------------------------------------------|
 G|19-19-19-16-18-14-16-12-14-10-10/12~~~--12-12-12-12----------------------|
 D|----------------------------------------14-12h14-14----10/12~~-12\9/14~~-|
 A|-------------------------------------------------------------------------|
 E|-------------------------------------------------------------------------|
 e|-------------------------------------------------------------------------|
 B|---------------------------------------------------------17--------------|
 G|-----------------------------------------16h19-19--16h19----19~~-19------|
 D|-10/16~~-13/17~~-14h16h17p16p14-16/19~~----------------------------------|
 A|-------------------------------------------------------------------------|
 E|-------------------------------------------------------------------------|
 e|-------------------------------------------------------------------------|
 B|-------------------------------------------------------------------------|
 G|-16-b-17--16-16-19?16h19-19-16-b-17--14----14-12/14-14\12-\-9~~----------|
 D|----------------------------------------17-----------------------7-7h9---|
 A|-------------------------------------------------------------------------|
 E|-------------------------------------------------------------------------|
 e|-------------------------------------------------------------------------|
 B|-------------------------------------------------------------------------|
 G|-------------------------------------------------------------------------|
 D|-7h9-9b10-9-7------------------------------------------------------------|
 A|--------------10p7-------------------------------------------------------|
 E|-------------------------------------------------------------------------|


Important: The song above is NOT stored on the Chordie server. The original song is hosted at www.guitaretab.com. Chordie works as a search engine and provides on-the-fly formatting. Chordie does not index songs against artists'/composers' will. To remove this song please click here.

This song is displayed as text-only. Transposing and tuning is only available for chordpro-songs.
Rate #1 of 5 versions

Jango Player

Login - add to songbook

SHARE PAGE  




You need to log in to post comments