Guitar Tabs, Chords and Lyrics
Major upgrade!! After one year development the new version of Chordie is now online! Please give feedback.


The Happiest Days of Our Lives   Pink Floyd

 
 e|------------------------------------------------------------------|
 B|------------------------------------------------------------------|
 G|------------------------------------------------------------------|
 D|-7-7-7-7-7-7-7-7-7-7-7-7-7-7-7-7-7-7-7-7-7-7-7-7-7-7-7-7-7-7-7-7--|
 A|-5-5-5-5-5-5-5-5-5-5-5-5-5-5-5-5-5-5-5-5-5-5-5-5-5-5-5-5-5-5-5-5--|
 E|------------------------------------------------------------------|
 [ P.M------------------------------------------------------------]
 e|-------------------------------------------------------------------|
 B|-------------------------------------------------------------------|
 G|-7-7-7-7-7-7-7-7-7-7-7-7-7-7-7-7-7-7-7-7-7-7-7-7-7-7-7-7-7-7-7-7---|
 D|-7-7-7-7-7-7-7-7-7-7-7-7-7-7-7-7-7-7-7-7-7-7-7-7-7-7-7-7-7-7-7-7---|
 A|-5-5-5-5-5-5-5-5-5-5-5-5-5-5-5-5-5-5-5-5-5-5-5-5-5-5-5-5-5-5-5-5---|
 E|-------------------------------------------------------------------|
 [ P.M------------------------------------------------------------]
 e|--------------------------------------------------------------------|
 B|--------------------------------------------------------------------|
 G|--------------------------------------------------------------------|
 D|-7-7-7-7-7-7-7-7-7-5-5-5-5-5-5-5-5----------------------------------|
 A|-5-5-5-5-5-5-5-5-5-3-3-3-3-3-3-3-3-3-8-8-8-8-7-7-7-7---5-5-5-5-5-5--|
 E|-------------------------------------6-6-6-6-5-5-5-5---3-3-3-3-3-3--|
 [ P.M--------------] [ P.M ------]
 e|-------------------------------------------------------------------|
 B|-------------------------------------------------------------------|
 G|-------------------------------------------------------------------|
 D|-------------------------------------------------------------------|
 A|-------------------------------------------------------------------|
 E|-3-3-3-3-3-3-3-3-3-3-3-3-3-3-3-3-3-3-3-3-3-3-3-3-3-3-3-3-3-3-3-----|
 [ P.M------------------------------------------------------------]
 e|-------------------------------------------------------------------|
 B|-------------------------------------------------------------------|
 G|-------------------------------------------------------------------|
 D|-------------------------------------------------------------------|
 A|-5-/7-7-7-7-7-7-7--------------------------------------------------|
 E|-3-/5-5-5-5-5-5-5---------------------------------------------------|

 


 when we grew up and went to school


 


 

 
 e|-------------------------------------------------------------------|
 B|-------------------------------------------------------------------|
 G|-------------------------------------------------------------------|
 D|-------------------------------------------------------------------|
 A|-5-/7-7-7-7-7-7-7--------------------------------------------------|
 E|-3-/5-5-5-5-5-5-5--------------------------------------------------|

 


 There were cer - tain teachers who would


 


 

 
 e|-------------------------------------------------------------------|
 B|-------------------------------------------------------------------|
 G|-------------------------------------------------------------------|
 D|-----------------5-5-5-5-5-----------------------------------------|
 A|--7-7-7-7-7-7-7--3-3-3-3-3--5-5-5-5-5-5/-----------7777------------|
 E|--5-5-5-5-5-5-5-------------3-3-3-3-3-3/-----------5555------------|
 [P.M --------]

 


 Hurt the children an-y- way they could


 


 

 
 e|-------------------------------------------------------------------|
 B|-------------------------------------------------------------------|
 G|-------------------------------------------------------------------|
 D|-------------------------------------------------------------------|
 A|--7-7-7-7-7-7-7----5-5-5-5-5-5----3-3-3-3-3---2-2-2-2-2------------|
 E|--5-5-5-5-5-5-5----3-3-3-3-3-3----1-1-1-1-1---0-0-0-0-0------------|

 


 


 by pouring their derision Upon anything we did ex-pos-ing


 


 

 
 e|-------------------------------------------------------------------|
 B|-------------------------------------------------------------------|
 G|-------------------------------------------------------------------|
 D|-------------------------------------------------------------------|
 A|--7-7-7-7-7-7-7----5-5-5-5-5-5----3-3-3-3-3---2-2-2-2-2------------|
 E|--5-5-5-5-5-5-5----3-3-3-3-3-3----1-1-1-1-1---0-0-0-0-0------------|

 


 ev- 'ry weakness How - ever carefully hidden by the kids


 


 Played in steps


 

 
 e|-------------------------------------------------------------------|
 B|-------------------------------------------------------------------|
 G|-------------------------------------------------------------------|
 D|-------------------------------------------------------------------|
 A|----10-10-10-10-10-10-10-10-8-8-8-8-8-8-7-7-7-7-5-5-5-5--3-3-3-----|
 E|-----8--8--8--8--8--8--8--8-6-6-6-6-6-6-5-5-5-5-3-3-3-3--1-1-1-----|

 


 


 but in the town it was well known When they got home at night,


 their fat and Psy - cho - pathic wives would thrash them Within


 inches of our lives


 


 My favroite bit


 


 Strume through out with lots of emotion and feelin


 


 

 
 e|-------------------------------------------------------------|
 B|-------------------------------------------------------------|
 G|-------------------------------------------------------------|
 D|-3-------------------------------8---------------------------|
 A|-3-------------------------------8---------------------------|
 E|-1-------------------------------6---------------------------|

 


 ooooooooooooooooooooooooooooooooo


 


 

 
 e|-------------------------------------------------------------|
 B|-------------------------------------------------------------|
 G|-------------------------------------------------------------|
 D|-3-------------------------------8---------------------------|
 A|-3-------------------------------8---------------------------|
 E|-1-------------------------------6---------------------------|
 e|-------------------------------------------------------------|
 B|-------------------------------------------------------------|
 G|-------------------------------------------------------------|
 D|-3-------------------------------8---------------------------|
 A|-3-------------------------------8---------------------------|
 E|-1-------------------------------6---------------------------|

 


 


 last bit changes


 

 
 e|------------------------------------------------------------------|
 B|------------------------------------------------------------------|
 G|------------------------------------------------------------------|
 D|-3-------------------------------8---------10---------------------|
 A|-3-------------------------------8---------10---------------------|
 E|-1-------------------------------6----------8---------------------|


Important: The song above is NOT stored on the Chordie server. The original song is hosted at www.guitaretab.com. Chordie works as a search engine and provides on-the-fly formatting. Chordie does not index songs against artists'/composers' will. To remove this song please click here.

This song is displayed as text-only. Transposing and tuning is only available for chordpro-songs.
Rate #1 of 1 versions

Login - add to songbook

SHARE PAGE  



You need to log in to post comments