Guitar Tabs, Chords and Lyrics
Major upgrade!! After one year development the new version of Chordie is now online! Please give feedback.


In the Flesh?  Pink Floyd

Intro(Chords):
[E] [D] [G] [A] [Bm-Cm]  
[G] [D] [E]  
[D] [E] [G7/Dm] [E]  
[D] [E] [G7/Dm] [G]  
[A] [A] [E] [A] [E-D] [Bm] [A] [E]  
[A] [A] [E] [A] [E-D] [Bm] [A] [E]  
[A]C#m[A] E[E] B[A]m [E-Bm] A E..[D].[A] [E]
Intro (Tab):
 
 |-------------------------------------------------------------------------------|
 |-------------------------------------------------------------------------------|
 |--------------------------------------------12/--7-----7~---7/--9--------------|
 |--------------------------------------------12/--7-----7~---7/--9--------------|
 |----------------------0----2----3~~---------10/--5-----5~---5/--7--------------|
 |--0--0----2~~----3-------------------------------------------------------------|
 |------------0---------------0--------------------------------------------------|
 |---------0-----3---------0-----3~----------------------------------------------|
 |----2b4------------2b4---------------2b4r2---0---------------------------------|
 |------------------------------------------------2--0----------------------2~---|
 |------------------------------------------------------2?1-0--------------------|
 |---------------------------------------------------------------3b4r3---0-------|
 |-------0~~--------0~~--------x~~--------0~~---|
 |-------3~~--------5~~--------6~~--------5~~---|
 |-------2~~--------4~~--------5~~--------4~~---|
 |-------0~~--------0~~--------0~~--------0~~---|
 |----------------------------------------------|
 |----------------------------------------------|
 |-------0~~--------0~~--------x~~-------x~~----|
 |-------3~~--------5~~--------6~~-------8~~----|
 |-------2~~--------4~~--------5~~-------7~~----|
 |-------0~~--------0~~--------0~~-------0~~----|
 |----------------------------------------------|
 |----------------------------------------------|

Main Riff
 
 |-----------------------------------------------------------------|
 |-----------------------------------------------------------------|
 |-----------------------------------------------------------------| 2x(Times)
 |------------------------------------------------2----------------|
 |--0?2b4--2--0------------------4b5--4--2--------0----------------|
 |----------------2b3---2------------------------------------------|
 |--------------------------------------------------------------------------|
 |--------------------------------------------------------------------------|
 |--------------------------------------------------------------------------|
 |--------------------------------------------------------------------------|
 |--2b4--2?0---1-2---------4b5--4--2----3-4--------5b7---5--4---------------|
 |--------------------------------------------------------------0?x-x-x-----|

[A]So ya thought ya might like to [D]go to the show
[A]To feel the warm thrill of confusion
That [D]space cadet glow
[A]Tell me is something eluding you sunshine?
[Bm]Is this not what you ex[E7]pected to see?
If you [C#m]wanna find out what's behind these cold eyes?
You'll [E]just have to claw your way through this disguise
Here you do some picking...(during verse)
[A] [D]  
 
 |----------0-----------0----------------2------------2---------|
 |-------2----2-------2----2----------3-----3-------3---3-------|
 |----2---------2---2--------2-----2----------2---2-------2-----| 2x(Times)
 |--2-------------2--------------0--------------0---------------|
 |--------------------------------------------------------------|
 |--------------------------------------------------------------|

[A] [Bm]  
 
 |----------0-----------0----------------2------------2-----------|
 |-------2----2-------2----2----------3-----3-------3----3--------|
 |----2---------2---2--------2-----4----------4---4---------4-----|
 |--2-------------2--------------4--------------4-----------------|
 |----------------------------------------------------------------|
 |----------------------------------------------------------------|

[C#m] [E]  
 
 |--------4-----------4-------------0-------------0-----------|
 |------5---5-------5----5--------0----0--------0----0--------|
 |----6-------6---6--------6----1--------1----1--------1------|
 |--6-----------6-------------2------------2------------------|
 |------------------------------------------------------------|
 |------------------------------------------------------------|

Outro (chords)
[A] [A] [E] [A] [E-D] [Bm] [A] [E]  
[A] [A] [E] [A] [E-D] [Bm] [A] [E]  
[A]C#m[A] E[E] B[A]m [E-Bm] A E..[D].A..[A] [E]
Outro (tab)
Main Riff
 
 |-----------------------------------------------------------------|
 |-----------------------------------------------------------------|
 |-----------------------------------------------------------------| 2x(Times)
 |------------------------------------------------2----------------|
 |--0?2b4--2--0------------------4b5--4--2--------0----------------|
 |----------------2b3---2------------------------------------------|
 |--------------------------------------------------------------------------|
 |--------------------------------------------------------------------------|
 |--------------------------------------------------------------------------|
 |--------------------------------------------------------------------------|
 |--2b4--2?0---1-2---------4b5--4--2----3-4--------5b7---5--4---------------|
 |--------------------------------------------------------------0?x-x-x-----|


Important: The song above is NOT stored on the Chordie server. The original song is hosted at www.guitaretab.com. Chordie works as a search engine and provides on-the-fly formatting. Chordie does not index songs against artists'/composers' will. To remove this song please click here.

Text color:
Chord color:
Chord grids: 
Font size:    
Page size: 

A Bm C#m D E E7 G
Rate #2 of 6 versions

Jango Player

Login - add to songbook

SHARE PAGE  




You need to log in to post comments