Guitar Tabs, Chords and Lyrics
Major upgrade!! After one year development the new version of Chordie is now online! Please give feedback.


Age   Pistolita

 
 e|---0--0--0--0--0--0-0-----|
 B|-12-12-12-12-12-\7-8-5----|
 G|--------------------------| X8
 D|--------------------------|
 A|--------------------------|
 E|--------------------------|

 


 


 2. Main riff with straight forward notes


 

 
 e|---------------------------------------------|
 B|-12121212121212121212778855------------------|
 G|---------------------------------------------| X3 Starts at 0:23
 D|---------------------------------------------|
 A|---------------------------------------------|
 E|---------------------------------------------|
 e|---------------------1717151515151515--------|
 B|-12121212121212121212------------------------|
 G|---------------------------------------------|
 D|---------------------------------------------|
 A|---------------------------------------------|
 E|---------------------------------------------|

 


 


 (Main Riff x3)


 


 3. Verse


 

 
 e|--------------------------|
 B|-12----\7-8-5----7----12--|
 G|--------------------------|
 D|--------------------------|
 A|--------------------------|
 E|--------------------------|

 


 [#1] [#2] [#3] [#4]  

 
 e|-------|-------|-------|-------------|
 B|-------|-------|-------|-------------|
 G|-5-----|-2-----|-------|-------------|
 D|-5-----|-2-----|-2-----|-55555555----| Let first 3 power chords ring
 A|-3-----|-0-----|-2-----|-55555555----|
 E|-------|-------|-0-----|-33333333----|

 


 


 For the next part of the verse, play the 4 chords above as you played chord #4.


 


 4. Chorus


 

 
 e|---0--0--0--0--0--0-0-----|
 B|-12-12-12-12-12-\7-8-5----|
 G|--------------------------| X8
 D|--------------------------|
 A|--------------------------|
 E|--------------------------|

 


 


 5. Play the verse again followed by the chorus again.


 


 6. Bridge (Piano Solo)


 

 
 e|-------17-15--0--------------------------|
 B|-12-----------12----12-15\-7-8-5---7-----|
 G|-----------------------------------------|
 D|-----------------------------------------|
 A|-----------------------------------------|
 E|-----------------------------------------|
 e|-------17-15--0-----------------------------|
 B|-12-----------12----12-15\-7-8-5---77777777-|
 G|--------------------------------------------|
 D|--------------------------------------------|
 A|--------------------------------------------|
 E|--------------------------------------------|

 


 


 7. Solo (Starts at 3:32)


 

 
 e|-171715151212171715121217171515------------------------------|
 B|-------------------------------1212151512121515777788885555--|
 G|-------------------------------------------------------------|
 D|-------------------------------------------------------------|
 A|-------------------------------------------------------------|
 E|-------------------------------------------------------------|
 e|----------------------------|

 


 B|-12121212121212121212778855-|


 

 
 G|----------------------------| X2
 D|----------------------------|
 A|----------------------------|
 E|----------------------------|


Important: The song above is NOT stored on the Chordie server. The original song is hosted at www.guitaretab.com. Chordie works as a search engine and provides on-the-fly formatting. Chordie does not index songs against artists'/composers' will. To remove this song please click here.

This song is displayed as text-only. Transposing and tuning is only available for chordpro-songs.
Rate #2 of 5 versions

Jango Player

Login - add to songbook

SHARE PAGE  



You need to log in to post comments