Guitar Tabs, Chords and Lyrics
Major upgrade!! After one year development the new version of Chordie is now online! Please give feedback.


Eight Days   Pitchshifter

 
 E:--55-3-55-3-55-3-55-6-55-|(X3)
 A:-------------------------|
 D:-------------------------|
 G:-------------------------|
 B:-------------------------|
 E:-------------------------|
 E:--55-3-55-3-55-3-55-6-55-|
 A:--55-3-55-3-55-3-55-6-55-|
 D:--77-5-77-5-77-5-77-8-77-|
 G:--77-5-77-5-77-5-77-8-77-|
 B:--55-3-55-3-55-3-55-6-55-|
 E:--55-3-55-3-55-3-55-6-55-|

 


 


 [Verse 1] 


 

 
 E:--55-3-55-3-55-3-55-6-55-|
 A:-------------------------|
 D:-------------------------|
 G:-------------------------|
 B:-------------------------|
 E:-------------------------|
 E:--3-55-3-55-3-55-6-55-|
 A:--3-55-3-55-3-55-6-55-|
 D:--5-77-5-77-5-77-8-77-|
 G:--5-77-5-77-5-77-8-77-|
 B:--3-55-3-55-3-55-6-55-|
 E:--3-55-3-55-3-55-6-55-|
 E:--3-55-3-55-3-55-6-55-|
 A:----------------------|
 D:----------------------|
 G:----------------------|
 B:----------------------|
 E:----------------------|
 E:--3-55-3-55-3-55-6-55-|
 A:--3-55-3-55-3-55-6-55-|
 D:--5-77-5-77-5-77-8-77-|
 G:--5-77-5-77-5-77-8-77-|
 B:--3-55-3-55-3-55-6-55-|
 E:--3-55-3-55-3-55-6-55-|
 E:--3-55-3-55-3-55---|
 A:--3-55-3-55-3-55---|
 D:--5-77-5-77-5-77---|(x2)
 G:--5-77-5-77-5-77---|
 B:--3-55-3-55-3-55---|
 E:--3-55-3-55-3-55---|

 


 


 [Cborus] 


 


 

 
 E:--8?-4--X-|
 A:--10-6--2-|
 D:--10-6--4-|
 G:--X?-X--4-|

 


 B:--X?-X--X


 E:--X?-X?X


 


 [Verse 2] 


 

 
 E:--55-3-55-3-55-3-55-6-55-|
 A:-------------------------|
 D:-------------------------|
 G:-------------------------|
 B:-------------------------|
 E:-------------------------|
 E:--3-55-3-55-3-55-6-55-|
 A:--3-55-3-55-3-55-6-55-|
 D:--5-77-5-77-5-77-8-77-|
 G:--5-77-5-77-5-77-8-77-|
 B:--3-55-3-55-3-55-6-55-|
 E:--3-55-3-55-3-55-6-55-|
 E:--3-55-3-55-3-55-6-55-|
 A:----------------------|
 D:----------------------|
 G:----------------------|
 B:----------------------|
 E:----------------------|
 E:--3-55-3-55-3-55-6-55-|
 A:--3-55-3-55-3-55-6-55-|
 D:--5-77-5-77-5-77-8-77-|
 G:--5-77-5-77-5-77-8-77-|
 B:--3-55-3-55-3-55-6-55-|
 E:--3-55-3-55-3-55-6-55-|
 E:--3-55-3-55-3-55---|
 A:--3-55-3-55-3-55---|
 D:--5-77-5-77-5-77---|(x2)
 G:--5-77-5-77-5-77---|
 B:--3-55-3-55-3-55---|
 E:--3-55-3-55-3-55---|

 


 


 [Cborus] 


 


 

 
 E:--8?-4--x-|
 A:--10-6--2-|
 D:--10-6--4-|
 G:--x?-x--4-|

 


 B:--x?-x--x


 E:--x?-x--x


 


 [Bridge] 


 

 
 E:--555-3----|
 A:--555-3----|
 D:--777-5?---| (x4)
 G:--777-5----|
 B:--555-3----|
 E:--555-3----|
 E:--555-6----|
 A:--555-6----|
 D:--777-8----|
 G:--777-8----|
 B:--555-6----|
 E:--555-6----|
 E:--------------------------------------------|
 B:--------------------------------------------|
 G:--------------------------------------------|
 D:--------------------------------------------|
 A:--5-h7-p5-h7-p5-h7-p5-h7-p5-h7-p5-h7-p5-h7--|
 E:--------------------------------------------|

 


 


 [Final cborus] 


 


 

 
 E:--3-55-3-55-3-55---|
 A:--3-55-3-55-3-55---|
 D:--5-77-5-77-5-77---|(x2)
 G:--5-77-5-77-5-77---|
 B:--3-55-3-55-3-55---|
 E:--3-55-3-55-3-55---|
 E:--8?-4--x-|
 A:--10-6--2-|
 D:--10-6--4-|
 G:--x?-x--4-|


Important: The song above is NOT stored on the Chordie server. The original song is hosted at www.guitaretab.com. Chordie works as a search engine and provides on-the-fly formatting. Chordie does not index songs against artists'/composers' will. To remove this song please click here.

This song is displayed as text-only. Transposing and tuning is only available for chordpro-songs.
Rate #2 of 3 versions

Jango Player

Login - add to songbook

SHARE PAGE  



You need to log in to post comments