Guitar Tabs, Chords and Lyrics
Major upgrade!! After one year development the new version of Chordie is now online! Please give feedback.


Unstoppable  The Planet Smashers

 
 -------------------------------------------------------------------------------

Unstoppable - Planet Smashers
 
 -------------------------------------------------------------------------------

Tabbed by: Andy Heidt
Email: andythecripple@hotmail.com
As always, play the chords where ya want em,
this is just where i play them
Tuning: standard
Intro/Basic Verse Progression
 
 |-10------10------8-------10--10--|
 |-10------12------8-------12--10--|
 |-11------12------9-------12--11--|
 |-12------12------10------12--12--|
 |-12------10------10------10--12--|
 |-10------10------8-------10--10--|

D G C G D |
Prechorus (~That's right)
 
 |-10------|
 |-12------|
 |-12------|
 |-12------|
 |-10------|
 |-10------|

[G]  
Chorus
 
 |-8-------10------10--------------|-8-------3-------5---------------|
 |-8-------12------10--------------|-8-------3-------7---------------|
 |-9-------12------11--------------|-9-------4-------7---------------|
 |-10------12------12--------------|-10------5-------7---------------|
 |-10------10------12--------------|-10------5-------5---------------|
 |-8-------10------10--------------|-8-------3-------5---------------|

[C] [G] [D] [C] [G] [D] 

Important: The song above is NOT stored on the Chordie server. The original song is hosted at www.guitaretab.com. Chordie works as a search engine and provides on-the-fly formatting. Chordie does not index songs against artists'/composers' will. To remove this song please click here.

Text color:
Chord color:
Chord grids: 
Font size:    
Page size: 

C D G
Rate #2 of 3 versions

Jango Player

Login - add to songbook

SHARE PAGE  




You need to log in to post comments