Guitar Tabs, Chords and Lyrics
Server problems seems to be fixed. Chordie has been experiencing problems with songs disappearing. These issues now seems to be fixed, but still verifying the fix. If you find anything strange, please email admin@chordie.com.


Children of the Heavenly Father  Plumb

 
 -------------------------------------------------------------------------

CHILDREN OF THE HEAVENLY FATHER - Plumb
 
 -------------------------------------------------------------------------

Tabbed by: Kengus
Standard tuning Am = x02210
Capo on first fret! A7sus2 = x02000
Dm = xx0231
INTRO F = 133211
Am A7sus2 Dm Am C = x32010
[F] [C] [Dm] [Am]  
[Am] [A7sus2] [Dm] [Am]  
[F] [C] [Dm] [Am]  
VERSE1
Children [Am]of the heav?nly [A7sus2]Father, safely [Dm]in His bosom [Am]gather
Nestling [F]bird nor star in [C]heaven, such a [Dm]refuge e?er was [Am]given
VERSE2
God His [Am]own doth tend and [A7sus2]nourish, in His [Dm]holy courts they [Am]flourish
From all [F]evil things He [C]spares them, in His [Dm]mighty arms He [Am]bears them
INTERLUDE
[Am] [A7sus2] [Dm] [Am]  
[F] [C] [Dm] [Am]  
VERSE3
Neither [Am]life nor death shall[A7sus2] ever, from the [Dm]Lord His children [Am]sever
Unto [F]them His grace He [C]showeth, and their [Dm]sorrows all He [Am]knoweth
VERSE4
Though He [Am]giveth or He [A7sus2]taketh, God His [Dm]children ne?er for[Am]saketh
His the [F]loving purpose [C]solely, to pre[Dm]serve them pure and [Am]holy
INTERLUDE
[Am] [A7sus2] [Dm] [Am]  
[F] [C] [Dm] [Am]  
VERSE5
Lo, their [Am]very hairs He [A7sus2]numbers, and no [Dm]daily care en[Am]cumbers
Them that [F]share His ev?ry [C]blessing, and His [Dm]help in woes di[Am]stressing
VERSE6
Praise the [Am]Lord in joyful [A7sus2]numbers, your Pro[Dm]tector never [Am]slumbers
At the [F]will of your De[C]fender, ev?ry [Dm]foeman must sur[Am]render
INTERLUDE/SOLO
[Am] [A7sus2] [Dm] [Am] [F] [C]  
 
 e|-----0--0--3-0-0--------0-1--3/5--3\1-1p0-0------3/5-5--9-5-5\3-3--|
 B|-1-3-------------3-3--3----------------------1-1-------------------|
 G|-------------------------------------------------------------------|
 D|-------------------------------------------------------------------|
 A|-------------------------------------------------------------------|
 E|-------------------------------------------------------------------|

[Dm] [Am]  
 
 e|-0-3-3--1--------------|
 B|-----------0-3-3-1-1~--|
 G|-----------------------|
 D|-----------------------|
 A|-----------------------|
 E|-----------------------|

VERSE7
Children [Am]of the heav?nly [A7sus2]Father, safely [Dm]in His bosom [Am]gather
Nestling [F]bird nor star in [C]heaven, such a [Dm]refuge e?er was [Am]given.
OUTRO
[Am] [A7sus2] [Dm] [Am]  
[F] [C] [Dm] [Am]  
[Am] [A7sus2] [Dm] [Am]  
[F] [C] [Dm] [Am]  
=========================================================================

Important: The song above is NOT stored on the Chordie server. The original song is hosted at www.guitaretab.com. Chordie works as a search engine and provides on-the-fly formatting. Chordie does not index songs against artists'/composers' will. To remove this song please click here.

Text color:
Chord color:
Chord grids: 
Font size:    
Page size: 

A7sus2 Am C Dm F
Rate #2 of 4 versions

Login - add to songbook

SHARE PAGE  



You need to log in to post comments