Guitar Tabs, Chords and Lyrics
Server problems seems to be fixed. Chordie has been experiencing problems with songs disappearing. These issues now seems to be fixed, but still verifying the fix. If you find anything strange, please email admin@chordie.com.


Freestyle  P.O.D.

P.O.D. - Freestyle tabbed by Vincent 508
Tuning: Drop D
[E]  
[B]  
[G]  
[D]  
[A]  
[D]  
Intro, clean guitar with echo reverb effect
 
 |----------------------------------------------------|
 |----------------------------6-----------------------|
 |----------7-----9-----7-----------7-----9-----7-----|
 |----7-----------------------------------------------| x4
 |----------------------------------------------------|
 |----------------------------------------------------|
 ----------------------------

Verse riff 1, clean guitar with light echo reverb effect
 
 ----------------------------------------------------------

8
 
 |-----------------------------------------|
 |--------------------------------------------|
 |--------------------------------------------|
 |---7----7----7----7----7----7----7----7-----|
 |---7----7----7----7----7----7----7----7-----|
 |---5----5----5----5----5----5----5----5-----|
 |--------------------------------------------|

x6
 
 |-------------------------------------------|
 |-------------------------------------------|
 |---5----5----5----10---10---10---9----9----|
 |---5----5----5----10---10---10---9----9----|
 |---3----3----3----8----8----8----7----7----|
 |-------------------------------------------|
 ----------------------------------------------------------
 -------------------

Intermission, distorted guitar
 
 |----------------------------------------------------------------------|
 |----------------------------------------------------------------------|
 |----------------------------------------------------------------------|
 |----------------------------------------------------------------------| x2
 |--------------5-------------5-----------5-----------5-----------5-----|
 |---0---------------------0-----------0-----------0-----------0--------|
 --------------------

Verse riff 2, distorted guitar
 
 |------------------------------------------------------------------|
 |------------------------------------------------------------------|
 |---------------------12--12--12--12--12--11--11--11--11--12-x--x--|
 |---5--------5--------x---x---x---x---x---x---x---x---x---x--x--x--| x7
 |---5--------5--------10--10--10--10--10--9---9---9---9---10-x--x--|
 |---5--------5-----------------------------------------------x--x--|

then on the 8th playthrough, it changes slightly, taking out the scratches at the end
replacing them with more note strums.
 
 |---------------------------------------------------------------------|
 |---------------------------------------------------------------------|
 |---------------------12--12--12--12--12--11--11--11--11--12--12--12--|
 |---5--------5--------x---x---x---x---x---x---x---x---x---x---x---x---|
 |---5--------5--------10--10--10--10--10--9---9---9---9---10--10--10--|
 |---5--------5--------------------------------------------------------|

After this, go back and repeat everything from verse riff 1 back up to this point, and
onto the bridge.
 
 ---------------------

Bridge/breakdown, distorted guitar
NOTE: "X" = scratch. Put fingers over strings and scratch with the pick.
 
 |--------------------------------------------------------------|
 |--------------------------------------------------------------|
 |--------------------------------------------------------------|
 |---5----------5--5--5--0----------------x--8-------x--8-------| x8
 |---5----------5--5--5--0----------------x--8-------x--8-------|
 |---5----------5--5--5--0----------------x--8-------x--8-------|

Then go back and repeat verse riff 1, intermission, and leave out the first playthrough
verse riff 2, only playing it 7 times total instead of 8. Sonny sings with no
for the first playthrough.
After that, play the bridge/breakdown section again, and you're done!
 
 -----------------------


Important: The song above is NOT stored on the Chordie server. The original song is hosted at www.guitaretab.com. Chordie works as a search engine and provides on-the-fly formatting. Chordie does not index songs against artists'/composers' will. To remove this song please click here.

Text color:
Chord color:
Chord grids: 
Font size:    
Page size: 

A B D E G
Rate #2 of 2 versions

Jango Player

Login - add to songbook

SHARE PAGE  




You need to log in to post comments