Guitar Tabs, Chords and Lyrics
Server problems seems to be fixed. Chordie has been experiencing problems with songs disappearing. These issues now seems to be fixed, but still verifying the fix. If you find anything strange, please email admin@chordie.com.


A Crack in the Spine of the Gallant  Postmortem Promises

Postmortem Promises - A Crack in the Spine of the Gallant.
MySpace URL:
www.myspace.com/postmortempromises
Drop A - Tunned for 6 string.
Enjoy :)
PM PM PM PM PM PM PM PM PM PM
E E Q E E E E E E Q Q Q E E Q E E E E
 
 B ||-------------------------|-----------------------|---------------------|
 F#||-------------------------|-----------------------|---------------------|
 D ||-------------------------|-----------------------|---------------------|
 A ||--4--5--4----------------|--4--5--4----6----5----|--4--5--4------------|
 E ||--3--4--3----------------|--3--4--3----5----4----|--3--4--3------------|
 A ||-------------0--0--0--0--|-----------------------|------------0--0--0-0|

PM PM PM PM PM PM PM PM PM PM
Q Q Q Q E E Q E E E E E E Q Q Q
 
 ----------------------|-------------------------|-----------------------|
 ----------------------|-------------------------|-----------------------|
 ----------------------|-------------------------|-----------------------|
 --6----5----4----5----|--4--5--4----------------|--4--5--4----6----5----|
 --5----4----3----4----|--3--4--3----------------|--3--4--3----5----4----|
 ----------------------|-------------0--0--0--0--|-----------------------|

PM PM PM PM PM PM PM PM PM
E E Q E E E E E E E E E E E E
 
 -------------------------|---------------------------||
 -------------------------|---------------------------||
 -------------------------|-----------------4--6--7--*||
 --4--5--4----------------|--------5--6--8-----------*||
 --3--4--3----------------|--6--7---------------------||
 -------------0--0--0--0--|---------------------------||

PM PM PM PM PM
E E E E E E E E W E E H.
 
 --------------------------|-------------------|---------------------|
 -----------------------6--|-------------------|---------------------|
 --------------4--6--7-----|-------------------|---------------------|
 -----5--6--8--------------|-------------------|---------------------|
 --7-----------------------|--0----------------|--0------------------|
 --------------------------|--0----------------|--0------------------|

T T T T
[E] [E] [E] [E] [E] [E] [E] [E] [E] [E] [E] [E] [E] [E] [E] [E]  
 
 |---------------------------------|--------------------------------|
 |---------------------------------|--------------------------------|
 |*--------------------------------|--------------------------------|
 |*--------------------------------|--------------------------------|
 |---------------------------------|--------------------------------|
 |---7p--4p--1h--4--7p--4p--1h--4--|--7p--4p--1h--4--7p--4p--1h--4--|

T T T T
[E] [E] [E] [E] [E] [E] [E] [E] [E] [E] [E] [E] [E] [E] [E] [E]  
 
 --------------------------------|--------------------------------|
 --------------------------------|--------------------------------|
 --------------------------------|--------------------------------|
 --------------------------------|--------------------------------|
 --------------------------------|--------------------------------|
 --6p--3p--0h--3--6p--3p--0h--3--|--6p--3p--0h--3--6p--3p--0h--3--|

T T T T
[E] [E] [E] [E] [E] [E] [E] [E] [E] [E] [E] [E] [E] [E] [E] [E]  
 
 --------------------------------|--------------------------------|
 --------------------------------|--------------------------------|
 --------------------------------|--------------------------------|
 --------------------------------|--------------------------------|
 --------------------------------|--------------------------------|
 --7p--4p--1h--4--7p--4p--1h--4--|--7p--4p--1h--4--7p--4p--1h--4--|

T T PM PM PM PM
E E E E E E E E Q Q Q Q
 
 --------------------------------|-----------------------||
 --------------------------------|-----------------------||
 --------------------------------|----------------------*||
 --------------------------------|--6----5----4----5----*||
 --------------------------------|--5----4----3----4-----||
 --6p--3p--0h--3--6p--3p--0h--3--|-----------------------||

T T T T
[E] [E] [E] [E] [E] [E] [E] [E] [E] [E] [E] [E] [E] [E] [E] [E]  
 
 ---------------------------------|--------------------------------|
 ---------------------------------|--------------------------------|
 *--------------------------------|--------------------------------|
 *--7p--4p--1h--4--7p--4p--1h--4--|--7p--4p--1h--4--7p--4p--1h--4--|
 ---------------------------------|--------------------------------|
 ---------------------------------|--------------------------------|

T T T T
[E] [E] [E] [E] [E] [E] [E] [E] [E] [E] [E] [E] [E] [E] [E] [E]  
 
 --------------------------------|--------------------------------|
 --------------------------------|--------------------------------|
 --------------------------------|--------------------------------|
 --6p--3p--0h--3--6p--3p--0h--3--|--6p--3p--0h--3--6p--3p--0h--3--|
 --------------------------------|--------------------------------|
 --------------------------------|--------------------------------|

T T T T
[E] [E] [E] [E] [E] [E] [E] [E] [E] [E] [E] [E] [E] [E] [E] [E]  
 
 --------------------------------|--------------------------------|
 --------------------------------|--------------------------------|
 --------------------------------|--------------------------------|
 --7p--4p--1h--4--7p--4p--1h--4--|--7p--4p--1h--4--7p--4p--1h--4--|
 --------------------------------|--------------------------------|
 --------------------------------|--------------------------------|

T T PM PM PM PM
E E E E E E E E Q Q Q Q Q H.
 
 --------------------------------|-----------------------||-----------------|
 --------------------------------|-----------------------||-----------------|
 --------------------------------|----------------------*||-----------------|
 --6p--3p--0h--3--6p--3p--0h--3--|--6----5----4----5----*||--4--------------|
 --------------------------------|--5----4----3----4-----||--3--------------|
 --------------------------------|-----------------------||-----------------|

PM PM PM PM PM PM PM PM PM PM PM PM
Q Q Q Q Q Q Q Q Q Q Q Q
 
 |-----------------------|----------------------|----------------------|
 |-----------------------|----------------------|----------------------|
 |*----------------------|----------------------|----------------------|
 |*----------------------|----------------------|----------------------|
 |---3----2----1----2----|--1----0----3----2----|--1----2----1----0----|
 |---3----2----1----2----|--1----0----3----2----|--1----2----1----0----|

PM PM PM PH PM PM PM PM PM PM
Q Q Q Q 4x Q Q Q Q H Q Q
 
 -------------------------||-----------------------|---------------------|
 -------------------------||-----------------------|---------------------|
 ------------------------*||*----------------------|---------------------|
 ------------------------*||*----------------------|--1------------------|
 --3----2----1------------||---3----2----1----2----|--1--------3----2----|
 --3----2----1----2-----||---3----2----1----2----|--1--------3----2----|

PM PM PM PM PM PM
Q Q H W Q Q Q Q
 
 ---------------------|-------------------|----------------------|
 ---------------------|-------------------|----------------------|
 ---------------------|-------------------|----------------------|
 ------------1--------|--L----------------|----------------------|
 --1----2----1--------|--L----------------|--3----2----1----2----|
 --1----2----1--------|--L----------------|--3----2----1----2----|

PM PM PM PM
H Q Q H Q Q Q Q H
 
 ---------------------|---------------------|---------------------|
 ---------------------|---------------------|---------------------|
 ---------------------|---------------------|---------------------|
 --1------------------|---------------------|---------------------|
 --1------------------|---------------------|---------------------|
 --1--------0----0----|--1--------0----3----|--L----0----4--------|

PM PM PM PM PM PM PM PM
Q Q Q Q H Q Q Q Q H
 
 ----------------------|---------------------|---------------------|
 ----------------------|---------------------|---------------------|
 ----------------------|---------------------|---------------------|
 ----------------------|--1------------------|------------1--------|
 --3----2----1----2----|--1--------3----2----|--1----2----1--------|
 --3----2----1----2----|--1--------3----2----|--1----2----1--------|

PM PM PM PM PM PM
W Q Q Q Q H Q Q
 
 -------------------|----------------------|---------------------|
 -------------------|----------------------|---------------------|
 -------------------|----------------------|---------------------|
 --L----------------|----------------------|--1------------------|
 --L----------------|--3----2----1----2----|--1------------------|
 --L----------------|--3----2----1----2----|--1--------0----0----|

PM PM
H Q Q Q Q H Q H Q H
 
 ---------------------|----------------------||----------------|------------|
 ---------------------|----------------------||----------------|------------|
 ---------------------|---------------------*||----------------|------------|
 ---------------------|---------------------*||----------------|------------|
 ---------------------|----------------------||----------------|------------|
 --4--------0----3----|--L----0----1---------||--0----1--------|--0----1----|

Q H Q H H H Q H
 
 ----------------|----------------|---------------------|----------------|
 ----------------|----------------|---------------------|----------------|
 ----------------|----------------|---------------------|----------------|
 ----------------|----------------|---------------------|----------------|
 ----------------|----------------|---------------------|----------------|
 --0----1--------|--0----1--------|--3--------4~--------|--0----1--------|

Q H Q H Q H H H
 
 ----------------|----------------|----------------|----------------------|
 ----------------|----------------|----------------|----------------------|
 ----------------|----------------|----------------|----------------------|
 ----------------|----------------|----------------|----------------------|
 ----------------|----------------|----------------|----------------------|
 --0----1--------|--0----1--------|--0----1--------|--/4--------3~--------|

Q H Q H Q H Q H
 
 ----------------|----------------|----------------|----------------|
 ----------------|----------------|----------------|----------------|
 ----------------|----------------|----------------|----------------|
 ----------------|----------------|----------------|----------------|
 ----------------|----------------|----------------|----------------|
 --3----4--------|--3----4--------|--3----4--------|--3----4--------|

H H Q H Q H Q H
 
 ---------------------|----------------|----------------|----------------|
 ---------------------|----------------|----------------|----------------|
 ---------------------|----------------|----------------|----------------|
 ---------------------|----------------|----------------|----------------|
 -----------0~--------|----------------|----------------|----------------|
 --6------------------|--3----4--------|--3----4--------|--3----4--------|

PM PM PM PM
Q H H H Q Q Q Q
 
 ----------------|----------------------||-----------------------|
 ----------------|----------------------||-----------------------|
 ----------------|----------------------||*----------------------|
 ----------------|----------------------||*----------------------|
 ----------------|----------------------||---3----2----1----2----|
 --3----4--------|--/7--------6~--------||---3----2----1----2----|

PM PM PM PM PM PM PM PM PM PM PM PH
Q Q Q Q Q Q Q Q Q Q Q Q 4x
 
 ----------------------|----------------------|-------------------------||
 ----------------------|----------------------|-------------------------||
 ----------------------|----------------------|------------------------*||
 ----------------------|----------------------|------------------------*||
 --1----0----3----2----|--1----2----1----0----|--3----2----1------------||
 --1----0----3----2----|--1----2----1----0----|--3----2----1----2-----||

PM PM PM PM PM PM PM PM PM PM PM PM PM PM PM tr tr
E E S E S E E S E S E E S E S Q Q
 
 --------------------------------|---------------------------------|
 --------------------------------|---------------------------------|
 --------------------------------|---------------------------------|
 --------------------------------|---------------------------------|
 --------------------------------|---------------------------------|
 --0--0--0--0--0--0--0--0--0--0--|--0--0--0--0--0--3(6)----2(5)----|

PM PM PM PM PM PM PM PM PM PM tr tr tr tr
E E S E S E E S E S Q Q Q Q
 
 --------------------------------|----------------------------------|
 --------------------------------|----------------------------------|
 --------------------------------|----------------------------------|
 --------------------------------|----------------------------------|
 --------------------------------|----------------------------------|
 --0--0--0--0--0--0--0--0--0--0--|--3(6)----2(5)----3(6)----4(7)----|

PM PM PM PM PM PM PM PM PM PM PM PM PM PM PM tr tr
E E S E S E E S E S E E S E S Q Q
 
 --------------------------------|---------------------------------|
 --------------------------------|---------------------------------|
 --------------------------------|---------------------------------|
 --------------------------------|---------------------------------|
 --------------------------------|---------------------------------|
 --0--0--0--0--0--0--0--0--0--0--|--0--0--0--0--0--3(6)----2(5)----|

PM PM PM PM TP TP TP TP TP TP
E E S E S H E E Q E E Q
 
 -------------------------|------------------------|
 -------------------------|------------------------|
 -------------------------|------------------------|
 -------------------------|------------------------|
 -------------------------|--5----------4----------|
 --0--0--0--0-------------|-----3--2-------2--1----|

PM PM PM PM PM PM PM
E E S E S E E Q W
 
 |-----------------------------|-------------------|
 |-----------------------------|-------------------|
 |*----------------------------|-------------------|
 |*----------------------------|-------------------|
 |---0--0--0--0--0--0--0-------|-------------------|
 |---0--0--0--0--0--0--0-------|-------------------|

PM PM PM PM PM PM PM PM PM PM PM PM PM
 
 |----3----| |----3----| 

E E S E S E E E E Q Q Q Q Q Q
 
 -----------------------------|--------------------------------|
 -----------------------------|--4--------------3--------------|
 -----------------------------|--7--------------6--------------|
 -----------------------------|--------------------------------|
 --0--0--0--0--0--0--0--0--0--|-------3----2---------2----1----|
 --0--0--0--0--0--0--0--0--0--|-------3----2---------2----1----|

PM PM PM PM PM PM PM PM PM PM PM PM PM PM
E E S E S E E Q W E E S E S E E Q
 
 ----------------------------|-------------------|--------------------------|
 ----------------------------|-------------------|--------------------------|
 ----------------------------|-------------------|--------------------------|
 ----------------------------|-------------------|--------------------------|
 --0--0--0--0--0--0--0-------|-------------------|--0--0--0--0--0--0--0-----|
 --0--0--0--0--0--0--0-------|-------------------|--0--0--0--0--0--0--0-----|

TP TP TP TP TP TP PM PM PM PM
E E Q E E Q E E E E E Q. W
 
 -------------------------||------------------------|-------------------|
 -------------------------||------------------------|-------------------|
 ------------------------*||------------------------|-------------------|
 ------------------------*||--6--5--4--5--4---------|--4----------------|
 --5----------4-----------||--5--4--3--4--3---------|--3----------------|
 -----3--2-------2--1-----||------------------------|-------------------|

W W W
 
 -------------------|-------------------|-------------------|
 -------------------|-------------------|-------------------|
 -------------------|-------------------|-------------------|
 --L----------------|--L----------------|--L----------------|
 --L----------------|--L----------------|--L----------------|
 -------------------|-------------------|-------------------|

PM PM PM PM PM PM PM PM PM PM PM PM
Q Q Q Q Q Q Q Q Q Q Q Q
 
 ----------------------|----------------------|----------------------|
 ----------------------|----------------------|----------------------|
 ----------------------|----------------------|----------------------|
 ----------------------|----------------------|----------------------|
 --3----2----1----2----|--1----0----3----2----|--1----2----1----0----|
 --3----2----1----2----|--1----0----3----2----|--1----2----1----0----|

PM PH PM PM PM PM PM PM PM PM PM PM
Q Q Q Q Q Q Q Q Q Q Q Q
 
 -------------------------|----------------------|----------------------|
 -------------------------|----------------------|----------------------|
 -------------------------|----------------------|----------------------|
 -------------------------|----------------------|----------------------|
 --0------------3----2----|--1----2----1----0----|--3----2----1----2----|
 --0----1b----3----2----|--1----2----1----0----|--3----2----1----2----|

PM PM PM PM PM
E E E E E E E E W W
 
 --------------------------|-------------------|-------------------|
 --------------------------|-------------------|-------------------|
 -----------------4--6--7--|-------------------|-------------------|
 --------5--6--8-----------|-------------------|-------------------|
 --6--7--------------------|-------------------|-------------------|
 --------------------------|-------------------|-------------------|

PM PM PM PM PM PM PM PM PM PM PM PM
Q Q Q Q Q Q Q Q Q Q Q Q
 
 ----------------------|----------------------|----------------------|
 ----------------------|----------------------|----------------------|
 ----------------------|----------------------|----------------------|
 --6----5----4----5----|--4----3----6----5----|--4----5----4----3----|
 --3----2----1----2----|--1----0----3----2----|--1----2----1----0----|
 --3----2----1----2----|--1----0----3----2----|--1----2----1----0----|

PM PH PM PM PM PM PM PM PM PM PM PM
Q Q Q Q Q Q Q Q Q Q Q Q
 
 -------------------------|----------------------|----------------------|
 -------------------------|----------------------|----------------------|
 -------------------------|----------------------|----------------------|
 --3------------6----5----|--4----5----4----3----|--6----5----4----5----|
 --0------------3----2----|--1----2----1----0----|--3----2----1----2----|
 --0----1b----3----2----|--1----2----1----0----|--3----2----1----2----|

PM PM PM PM PM PM
E E E E E E E E E E H.
 
 --------------------------|---------------------||
 --------------------------|---------------------||
 -----------------4--6--7--|---------------------||
 --------5--6--8-----------|---------------------||
 --6--7--------------------|--0------------------||
 --------------------------|--0------------------||

I'm pretty possitive this is 100% correct.
Please Rate/Vote and Comment!
Duration Legend
 
 ---------------

W - whole
H - half
Q - quarter
E - 8th
S - 16th
T - 32nd
X - 64th
. - note dotted
|-n-| - n-tuplets
Tablature Legend
 
 ----------------

L - tied note
x - dead note
g - grace note
(n) - ghost note
> - accentuded note
NH - natural harmonic
AH - artificial harmonic
TH - tapped harmonic
SH - semi harmonic
PH - pitch harmonic
h - hammer on
p - pull off
b - bend
br - bendRelease
pb - preBend
pbr - preBendRelease
brb - bendReleaseBend
\n/ - tremolo bar dip
\n - tremolo bar dive
-/n - tremolo bar Release up
/n\ - tremolo bar inverted dip
/n - tremolo bar return
-\n - tremolo bar Release down
S - shift slide
s - legato slide
/ - slide into from below or out of upwards
\ - slide into from above or out of downwards
~ - vibrato
W - wide vibrato
tr - trill
TP - tremolo picking
T - tapping
S - slap
P - pop
< - fade in
^ - brush up
v - brush down

Important: The song above is NOT stored on the Chordie server. The original song is hosted at www.guitaretab.com. Chordie works as a search engine and provides on-the-fly formatting. Chordie does not index songs against artists'/composers' will. To remove this song please click here.

Text color:
Chord color:
Chord grids: 
Font size:    
Page size: 

E
Rate #1 of 2 versions

Login - add to songbook

SHARE PAGE  




You need to log in to post comments