Guitar Tabs, Chords and Lyrics
Major upgrade!! After one year development the new version of Chordie is now online! Please give feedback.


Free   Powerman 5000

 
 -------------------------------------------------------------------------------

 


 Free - Powerman 5000


 

 
 -------------------------------------------------------------------------------

 


 


 Artist: Powerman 5000


 Song: Free (Track 3)


 Albulm: Transform


 Tabbed by: ZeroisGreatMan


 Tuning: Dropped Db Tunning: Db,Ab,Db,Gb,Bb,eb


 


 R.Guitar Intro/Verse/Outro: [w/Beavy Distortion]


 

 
 eb|---------------------------------------------------------|
 Bb|---------------------------------------------------------|
 Gb|---------------------------------------------------------|
 Db|-9-9-9-9--x-x-x--7-7-7-7--x-x-x--5-5-5-5--x-x-x--2-2-2-2-|
 Ab|-9-9-9-9--x-x-x--7-7-7-7--x-x-x--5-5-5-5--x-x-x--2-2-2-2-|
 Db|-9-9-9-9--x-x-x--7-7-7-7--x-x-x--5-5-5-5--x-x-x--2-2-2-2-|

 


 


 L.Guitar Intro Part 1/Outro: [w/Distortion]


 

 
 eb|---------------------------------------------------------|
 Bb|---------------------------------------------------------|
 Gb|---------------------------------------------------------|
 Db|--------------------------9------------------------------|
 Ab|----------------------------9~---------------------------|
 Db|-9-9-9-9--x-x-x--7-7-7-7---------5-5-5-5--x-x-x--2-2-2-2-|

 


 


 L.Guitar Intro Part 2/Fill: [w/Distortion + Ligbt Pbaser]


 

 
 eb|----------------------------------|
 Bb|----------------------------------|
 Gb|----------------------------------|
 Db|----------------------------------|
 Ab|-9-\5~-/9-/12-\9~--9-\5~-/7-\2-2~-|
 Db|----------------------------------|

 


 


 R.Guitar: Chorus: "Because living so free is a tragedy..."


 

 
 eb|-------------------------------------|
 Bb|-------------------------------------|
 Gb|-------------------------------------|
 Db|-5-5-5-5--/7-7-7-7--\2-2-0-0-2-2-0-0-|
 Ab|-5-5-5-5--/7-7-7-7--\2-2-0-0-2-2-0-0-|
 Db|-5-5-5-5--/7-7-7-7--\2-2-0-0-2-2-0-0-|

 


 


 L.Guitar: Chorus: [w/Distortion + Ligbt Pbaser]


 

 
 eb|-------------------------------------|
 Bb|-------------------------------------|
 Gb|-7-7-7-7--/9-9-9-9--\4-4-4-4-4-4-4-4-|
 Db|-------------------------------------|
 Ab|-------------------------------------|
 Db|-------------------------------------|

 


 


 R.Guitar: Bridge: "Wishing, and hoping..." [w/Distortion]


 

 
 e|---------------------------------------------------------------------|
 B|---------------------------------------------------------------------|
 G|-7-7-7-7-7-7-7-7-\6-6-6-6-6-6-6-6--\4-4-4-4-4-4-4-4------------------|
 D|-7-7-7-7-7-7-7-7-\6-6-6-6-6-6-6-6--\4-4-4-4-4-4-4-4--5-5-5-5-5-5-5-5-|
 A|-5-5-5-5-5-5-5-5-\4-4-4-4-4-4-4-4--\2-2-2-2-2-2-2-2--5-5-5-5-5-5-5-5-|
 D|-----------------------------------------------------5-5-5-5-5-5-5-5-|


Important: The song above is NOT stored on the Chordie server. The original song is hosted at www.guitaretab.com. Chordie works as a search engine and provides on-the-fly formatting. Chordie does not index songs against artists'/composers' will. To remove this song please click here.

This song is displayed as text-only. Transposing and tuning is only available for chordpro-songs.
Rate #3 of 6 versions

Jango Player

Login - add to songbook

SHARE PAGE  




You need to log in to post comments