Guitar Tabs, Chords and Lyrics
Server problems seems to be fixed. Chordie has been experiencing problems with songs disappearing. These issues now seems to be fixed, but still verifying the fix. If you find anything strange, please email admin@chordie.com.


Boll Weevil   The Presidents of the United States of America

 
 E-----------------|
 B-----------------|
 G-----------------|
 D-3-3-3-3-3-3-3-3-| X4
 A-3-3-3-3-3-3-3-3-|
 E-1-1-1-1-1-1-1-1-|
 E---------------------------------|
 B---------------------------------|
 G-3-3-3-3-3-3-3-3-3-3-3-3---------|
 D-3-3-3-3-3-3-3-3-3-3-3-3-3-3-3-3-| x1
 A-1-1-1-1-1-1-1-1-1-1-1-1-3-3-3-3-|
 E-------------------------1-1-1-1-|
 E-----------------------|
 B-----------------------|
 G-3-3-3-3-3333----------|
 D-3-3-3-3-3333-33333333-| x1
 A-1-1-1-1-1111-33333333-|
 E--------------11111111-|
 E----------|
 B----------|
 G----------|

 


 D-33333333- X2


 [A-33333333-]  


 [E-11111111-]  


 

 
 E-------------------|
 B-------------------|
 G-333333333333------|

 


 D-333333333333-3333-| X1


 A-111111111111-3333-|


 

 
 E--------------1111-|
 E-------------------|
 B-------------------|
 G-33333333----------|

 


 D-33333333-33333333-| X1


 A-11111111-33333333-|


 

 
 E----------11111111-|

 


 


 CHORUS (they are looking for a home...)


 


 

 
 E-------------------------------------|
 B-------------------------------------|
 G-33333333----------55555555----------|

 


 D-33333333-33333333-55555555-33333333-| X1


 A-11111111-33333333-33333333-33333333-|


 

 
 E----------11111111----------11111111-|

 


 


 SECOND VERSE (the farmer he took the boll weevil...)


 


 

 
 E----------|
 B----------|
 G----------|

 


 D-xxxxxxxx- x4


 A-xxxxxxxx-


 [E-11111111-]  


 

 
 E-------------------|
 B-------------------|
 G-333333333333------|

 


 D-333333333333-3333-| X1


 A-111111111111-3333-|


 

 
 E--------------1111-|
 E-------------------|
 B-------------------|
 G-33333333----------|

 


 D-33333333-33333333-| X1


 A-11111111-33333333-|


 

 
 E----------11111111-|
 E----------|
 B----------|
 G----------|

 


 D-33333333- X2


 [A-33333333-]  


 [E-11111111-]  


 

 
 E-------------------|
 B-------------------|
 G-333333333333------|

 


 D-333333333333-3333-| X1


 A-111111111111-3333-|


 

 
 E--------------1111-|
 E-------------------|
 B-------------------|
 G-33333333----------|

 


 D-33333333-33333333-| X1


 A-11111111-33333333-|


 

 
 E----------11111111-|

 


 


 SECOND CHORUS (yeah its full of them holes...)


 


 

 
 E-------------------------------------|
 B-------------------------------------|
 G-33333333----------55555555----------|

 


 D-33333333-33333333-55555555-33333333-| X1


 A-11111111-33333333-33333333-33333333-|


 

 
 E----------11111111----------11111111-|

 


 


 THIRD VERSE (now this next verse is about myself...)


 


 

 
 E----------|
 B----------|
 G----------|

 


 D-33333333- x48


 [A-33333333-]  


 [E-11111111-]  


 

 
 E-------------------|
 B-------------------|
 G-333333333333------|

 


 D-333333333333-3333-| X1


 A-111111111111-3333-|


 

 
 E--------------1111-|
 E-------------------|
 B-------------------|
 G-33333333----------|

 


 D-33333333-33333333-| X1


 A-11111111-33333333-|


 

 
 E----------11111111-|

 


 


 BRIDGE (now stop for a minute meg...)


 


 

 
 E-------------------------------------|
 B-------------------------------------|
 G-------------------------------------|
 D--------------------------------3333-| x1
 A-11111111----------33333333-----3333-|
 E----------11111111----------11111111-|

 


 


 THIRD CHORUS (yeah he's lookin' for a home)


 


 

 
 E----------------------------------------|
 B----------------------------------------|
 G-33333333----------55555555----55---3---|
 D-33333333-33333333-55555555-33-55-3-3-3-| x1
 A-11111111-33333333-33333333-33-33-3-1-3-|
 E----------11111111----------11----1---1-|


Important: The song above is NOT stored on the Chordie server. The original song is hosted at www.guitaretab.com. Chordie works as a search engine and provides on-the-fly formatting. Chordie does not index songs against artists'/composers' will. To remove this song please click here.

This song is displayed as text-only. Transposing and tuning is only available for chordpro-songs.
Rate #1 of 2 versions

Jango Player

Login - add to songbook

SHARE PAGE  



You need to log in to post comments

toolateraenima (report)

To whomever wrote this tab:
Seriously? Are you on crack? Those are the complete wrong lyrics and complete wrong chords. This is a completely different song than P.U.S.A.'s "Boll Weevil". Those lyrics you mentioned are nowhere in the song. I don't know what song you're hearing but stop taking that acid!