Guitar Tabs, Chords and Lyrics
Server problems seems to be fixed. Chordie has been experiencing problems with songs disappearing. These issues now seems to be fixed, but still verifying the fix. If you find anything strange, please email admin@chordie.com.


Volcano  The Presidents of the United States of America

Valcano- By the Presidents of the USA
Tabbed By Dave Wachala csoul@mail.com
Standard Tuning with Dropped D
[E5] [A5] [C#5]  
 
 -------------------------I
 -------------------------I
 -2---7---11--------------I
 -2---7---11--------------I
 -2---7---11--------------I

Intro:
Guitar 1
 
 ---------------------------------I---------------------------------I
 ---------------------------------I---------------------------------I
 ---------------------------------I---------------------------------I
 ---------------------------------I---------------------------------I
 -2--2--2--2--0----5--5---0--2----I-2--2--2--2--0----5--5---0--2----I
 -2--2--2--2--0----5--5---0--2----I-2--2--2--2--0----5--5---0--2----I

IGuitar 2 I
 
 ---------------------------------I---------------------------------I
 --------------1/2br-----full bendI--------------1/2br--------------I
 ---------9-11--11----9--11-------I---------9-11--11----9--11---9---I
 -----9h11------------------------I-----9h11------------------------I
 -9h11----------------------------I-9h11----------------------------I
 ---------------------------------I---------------------------------I

Guitar 1
 
 ---------------------------------I---------------------------------I
 ---------------------------------I---------------------------------I
 ---------------------------------I---------------------------------I
 ---------------------------------I---------------------------------I
 -2--2--2--2--0----5--5---0--2----I-2--2--2--2--0----5--5---0--2-2-2I
 -2--2--2--2--0----5--5---0--2----I-2--2--2--2--0----5--5---0--2-2-2I

IGuitar 2 I
 
 ---------------------------------I---------------------------------I
 --------------1/2br-----full bendI--------------1/2br--------------I
 ---------9-11--11----9--11-------I---------9-11--11----9--11---9---I
 -----9h11------------------------I-----9h11------------------------I
 -9h11----------------------------I-9h11----------------------------I
 ---------------------------------I---------------------------------I
 -----------------------------------------------I
 -----------------------------------------------I
 -----------------------------------------------I

-________________Palm mute__________________-2-I
 
 -2-2-2-2-2-2-2-2-2-2-2-2-2-2-2-2-2-2-2-2-2-2-2-I
 -2-2-2-2-2-2-2-2-2-2-2-2-2-2-2-2-2-2-2-2-2-2-2-I

I I
 
 -----------------------------------------------I
 -----------------------------------------------I
 -9-------------------------------------------9-I
 -------11-9-11-9------------------9-----9----9-IStop
 --------------------11--9----9h11---9h11--9--7-I
 -----------------------------------------------I

Verse:
[E5] Under [A5]the island... middle [C#5]of a mountain
There is a[E5] big bad... boomin[A5]' system
[C#5]Blowin' speakers, woo[E5]fers and tweeters
A[A5]mplifiers... melted[C#5] wires
The p[E5]arty exploded.. the[A5] core is corroded
[C#5]Under ground... the Puge[E5]t Sound
Cause a[A5] shiftin'... and a[C#5] driftin'
Big black bo[E5]om box... stuck in the [A5]hot rock
It's in there [C#5]flowin'... it's in t[E5]here growin'
You do[A5]n't believe me... that [C#5]this scenery
[E5]Could be a... cold blooded killer
Chorus:
Guitar 1
[G5] It's gonna blow woa woa woa[A].... Volcano
 
 -------------------------------------------------------------------------------I
 -------------------------------------------------------------------------------I
 ------------------------------------------------9-9-9-9------------------------IX3
 ------------------------------------------------7-7-7-7---9--11--9-------------I
 -2--2-2-3x-5x---------9--11--9--7--7h9-7--5--0--7-7-7-7------------------------I
 -2--2-2-3x-5x-----------------------------------7-7-7-7------------9--11--9--11I

Then go to the intro
This verse is the same as the first but with a semi-clean guitar
Now the island is shiftin'... the plates are liftin
The core is creamy... docile and dreamy
Stopped up and steamy
Happy campers... poop in their pampers
When a mountain... become a fountain
Of white hot lave... molten magma
Super sonic... plate tectonics
Stereo phonic... lava and tonic
The boom is bionic
Sony shut down... magnavox meltdown
Ballistic breakdown
Hi-fi heatwave... lo-fi lava cave
That sulfur smell is... Mt. St. Helens
Pompeii was yellin'...
play Chorus 4 times
Outro:
 
 -----------------------I------------------------I
 -----------------------I------------------------I
 -----------------------I------------------------I
 -----------------------I------------------------I
 -4-4-4-4--2-/-7--2---4-I-4-4-4-4--2-/-7--2---4--I
 -4-4-4-4--2-/-7--2---4-I-4-4-4-4--2-/-7--2---4--I

Then you just go crazy strumming that

Important: The song above is NOT stored on the Chordie server. The original song is hosted at www.guitaretab.com. Chordie works as a search engine and provides on-the-fly formatting. Chordie does not index songs against artists'/composers' will. To remove this song please click here.

Text color:
Chord color:
Chord grids: 
Font size:    
Page size: 

A A5 C#5 E5 G5
Rate #1 of 3 versions

Jango Player

Login - add to songbook

SHARE PAGE  



You need to log in to post comments