Guitar Tabs, Chords and Lyrics
Major upgrade!! After one year development the new version of Chordie is now online! Please give feedback.


Time the Avenger   The Pretenders

 
 ||-----------------|----------------|----------------|------------------||
 ||o----------------|----------------|----------------|-----------------o||
 ||-----------------|----------------|----------------|------------------||
 ||-----------------|----------------|----------------|------------------||
 ||o-5--5-----5-----|-5--5-----5-----|-3--3-----3-----|-3--3-----3------o||
 ||-------5-8---8-5-|------5-8---8-5-|------3-6---6-3-|------3-6---6-3---||
 ||-----------------|----------------|----------------|------------------||
 ||o----------------|----------------|----------------|-----------------o||
 ||-----------------|----------------|----------------|------------------||
 ||-----------------|----------------|----------------|------------------||
 ||o-5--5-----5-----|-5--5-----5-----|-3--3-----3-----|-3--3-----3------o||
 ||-------5-8---8-5-|------5-8---8-5-|------3-6---6-3-|------3-6---6-3---||
 ||-----------------|----------------|----------------|-----------------|
 ||o----------------|----------------|----------------|-----------------|
 ||-----------------|----------------|----------------|-----------------|
 ||-----------------|----------------|----------------|-----------------|
 ||o-5--5-----5-----|-5--5-----5-----|-5--5-----5-----|-5--5-----5------|
 ||-------5-8---8-5-|------5-8---8-5-|------5-8---8-5-|------5-8---8-5--|

 


 


 1.


 

 
 |----------------|----------------|----------------|
 |----------------|----------------|----------------|
 |----------------|----------------|----------------|
 |----------------|----------------|----------------|
 |-3--3-----3-----|-3--3-----3-----|-3--3-----3-----|
 |------3-6---6-3-|------3-6---6-3-|------3-6---6-3-|

 


 


 2.


 

 
 |-----------------||-------------|------|
 |----------------o||-------------|------|
 |-----------------||-------------|------|
 |-----------------||-5\----------|------|
 |-3--3-----3-----o||-3\----------|------|
 |------3-6---6-3--||-------------|------|

 


 


 Gtr II


 

 
 ||-----------------|----------------|----------------|------------------||
 ||o----------------|----------------|----------------|-----------------o||
 ||-----------------|----------------|----------------|------------------||
 ||-----------------|----------------|----------------|------------------||
 ||o-5--5---3-5-3---|-5--5---3-5-3---|-3--3---1-3-----|-3--3---1-3-1----o||
 ||-------5-------5-|------5-------5-|------3-----6-3-|------3-------3---||

 


 |


 | Gtr I


 

 
 ||-----------------|----------------|----------------|------------------||
 ||o----------------|----------------|----------------|-----------------o||
 ||-----------------|----------------|----------------|------------------||
 ||--4--4-----4-----|-4--4-----4-----|-2--2-----2-----|-2--2-----2-------||
 ||o------5-7---7-5-|------5-7---7-5-|------3-5---5-3-|------3-5---5-3--o||
 ||-----------------|----------------|----------------|------------------||

 


 


 Gtr II


 

 
 ||-----------------|----------------|----------------|------------------||
 ||o----------------|----------------|----------------|-----------------o||
 ||-----------------|----------------|----------------|------------------||
 ||-----------------|----------------|----------------|------------------||
 ||o-5--5---3-5-3---|-5--5---3-5-3---|-3--3---1-3-1---|-3--3---1-3-1----o||
 ||-------5-------5-|------5-------5-|------3-------3-|------3-------3---||

 


 |


 | Gtr I


 

 
 ||-----------------|----------------|----------------|------------------||
 ||o----------------|----------------|----------------|-----------------o||
 ||-----------------|----------------|----------------|------------------||
 ||--4--4-----4-----|-4--4-----4-----|-2--2-----2-----|-2--2-----2-------||
 ||o------5-7---7-5-|------5-7---7-5-|------3-5---5-3-|------3-5---5-3--o||
 ||-----------------|----------------|----------------|------------------||
 ||-----------------|------------------|------------------|------------------|
 ||o----------------|------------------|------------------|------------------|
 ||-----------------|------------------|------------------|------------------|
 ||-----------------|------------------|------------------|------------------|
 ||o-5--5-----5-----|-5---5------5-----|-5---5------5-----|-5---5-----5------|
 ||-------5-8---8-5-|--------5-8---8-5-|--------5-8---8-5-|-------5-8---8-5--|

 


 |


 | PM|


 

 
 ||-----------------|------------------|---2--------------|---2-----2---2----|
 ||o----------------|------------------|---3--------------|---3-----3---3----|
 ||-----------------|---2--------------|------------------|------------------|
 ||-----------------|-0----------------|------------------|------------------|
 ||o----------------|------------------|------------------|------------------|
 ||-----------------|------------------|------------------|------------------|

 


 


 1.


 

 
 |----------------|----------------|------------------|
 |----------------|----------------|------------------|
 |----------------|----------------|------------------|
 |----------------|----------------|------------------|
 |-3--3-----3-----|-3--3-----3-----|-3---3------3-----|
 |------3-6---6-3-|------3-6---6-3-|--------3-6---6-3-|

 


 |


 

 
 |----------------|----------------|------------------|
 |----------------|----------------|---5--------------|
 |----------------|----------------|---5--------------|
 |----------------|----------------|------------------|
 |----------------|----------------|------------------|
 |----------------|----------------|------------------|

 


 


 2.


 

 
 |------------------||-------------|------||
 |-----------------o||-------------|------||
 |------------------||-------------|------||
 |------------------||-5\----------|------||
 |-3---3-----3-----o||-3\----------|------||
 |-------3-6---6-3--||-------------|------||

 


 |


 

 
 |------------------||-------------|------||
 |---5-----3-----5-o||-------------|------||
 |---5-----5-----5--||-------------|------||
 |------------------||-5\----------|------||
 |-----------------o||-3\----------|------||
 |------------------||-------------|------||

 


 


 [4/4] [2/4] [3/4] [4/4] [3/4]  

 
 ||----------------------|----------|------------|---------------|------------|
 ||o---------------------|----------|------------|---------------|------------|
 ||----------------------|----------|------------|---------------|------------|
 ||------------------4---|-(4)-0----|-5---4-2----|-0-------------|-0----------|
 ||o-/5------/7----------|----------|------------|------3-2-0----|------3-2-0-|
 ||----------------------|----------|------------|---------------|------------|

 


 |


 

 
 ||---0-------0------2---|----------|------------|---------------|------------|
 ||o-----3-------0-----0-|-----3----|------------|---------------|------------|
 ||--------2-------2-----|--2--4----|------------|---------------|------------|
 ||----------------------|-----0----|-5---4-2----|-0-------------|-0----------|
 ||o---------------------|----------|------------|------3-2-0----|------3-2-0-|
 ||----------------------|----------|------------|---------------|------------|

 


 


 [4/4]  

 
 |------------------|-------------------|-----------------|--------------------||
 |------------------|-------------------|-----------------|-------------------o||
 |------------------|-------------------|-----------------|--------------------||
 |------------------|-------------------|-----------------|--------------------||
 |-3---3------3-----|--3---3------3-----|-3---3-----3-----|--3----3-----3-----o||
 |-------3--6---6-3-|---------3-6---6-3-|-------3-6---6-3-|---------3-6---6-3--||

 


 |


 

 
 |------------------|-------------------|-----------------|--------------------||
 |-5----------------|-(5)---------------|-6-----5-------6-|-(6)-----5---------o||
 |-5----------------|-(5)---------------|---7-------7-----|-----7-------7------||
 |-5----------------|-(5)---------------|-----8-------8---|-------8-------8----||
 |-3----------------|-(3)---------------|-----------------|-------------------o||
 |------------------|-------------------|-----------------|--------------------||

 


 |


 | Gtr III


 

 
 |------------------|-------------------|-----------------|--------------------||
 |-5-----3------6---|-(6)--3\-----------|-----------------|-------------------o||
 |-5-----3------7---|-(7)--3\-----------|-----------------|--------------------||
 |------------------|-------------------|-----------------|--------------------||
 |------------------|-------------------|-----------------|-------------------o||
 |------------------|-------------------|-----------------|--------------------||
 |-------------------------|------------------|
 |-------------------------|------------------|
 |-------------------------|------------------|
 |-------------------------|------------------|
 |-5-----5-----------5-----|--5---5-----5-----|
 |-------------5--8----8-5-|--------5-8---8-5-|

 


 |


 | ~~~~~~~~~~~~~~~~~~~~~


 

 
 |-------------------------|------------------|
 |----------------------|-(7)--------------|
 |----------------------|------------------|
 |----------------------|------------------|
 |-------------------------|------------------|
 |-------------------------|------------------|
 |-----------------|------------------|
 |-----------------|------------------|
 |-----------------|------------------|
 |-----------------|------------------|
 |-3--3------3-----|--3---3-----3-----|
 |------3--6---6-3-|--------3-6---6-3-|

 


 |


 

 
 |-----------------|--------3---------|
 |---------------5-|-(5)----5---------|
 |------5--------5-|-(5)----5---------|
 |----5-5------5-5-|-(5)--5-5---------|
 |-----------------|------------------|
 |-----------------|------------------|
 |------------------|-------------------|
 |------------------|-------------------|
 |------------------|-------------------|
 |------------------|-------------------|
 |-5---5------5-----|--5---5------5-----|
 |-------5--8---8-5-|--------5--8---8-5-|

 


 |


 

 
 |---5---5--------5-|-(5)----5----------|
 |---7---7--------7-|-(7)----7----------|
 |---7---7--------7-|-(7)----7----------|
 |------------------|-------------------|
 |------------------|-------------------|
 |------------------|-------------------|
 |------------------------|------------------|
 |------------------------|------------------|
 |------------------------|------------------|
 |------------------------|------------------|
 |-3----3-------3---------|--3--3-----3------|
 |----------3-6-----6---3-|-------3-6---6-3--|

 


 |


 

 
 |------------------------|-10---------------|
 |------------8-------8---|------------------|
 |--------7-------7-------|------------------|
 |---10-------------------|------------------|
 |------------------------|------------------|
 |------------------------|------------------|

 


 


 Gtr II


 

 
 ||-----------------|----------------|----------------|------------------||
 ||o----------------|----------------|----------------|-----------------o||
 ||-----------------|----------------|----------------|------------------||
 ||-----------------|----------------|----------------|------------------||
 ||o-5--5-----5-----|-5--5-----5-----|-3--3-----3-----|-3--3-----3------o||
 ||-------5-8---8-5-|------5-8---8-5-|------3-6---6-3-|------3-6---6-3---||

 


 |


 | Gtr I


 

 
 ||-----------------|----------------|----------------|------------------||
 ||o----------------|----------------|----------------|-----------------o||
 ||-----------------|----------------|----------------|------------------||
 ||--4--4-----4-----|-4--4-----4-----|-2--2-----2-----|-2--2-----2-------||
 ||o------5-7---7-5-|------5-7---7-5-|------3-5---5-3-|------3-5---5-3--o||
 ||-----------------|----------------|----------------|------------------||

 


 


 Gtr II


 

 
 ||-----------------|----------------|----------------|------------------||
 ||o----------------|----------------|----------------|-----------------o||
 ||-----------------|----------------|----------------|------------------||
 ||-----------------|----------------|----------------|------------------||
 ||o-5--5-----5-----|-5--5-----5-----|-3--3-----3-----|-3--3-----3------o||
 ||-------5-8---8-5-|------5-8---8-5-|------3-6---6-3-|------3-6---6-3---||

 


 |


 | Gtr I


 

 
 ||-----------------|----------------|----------------|------------------||
 ||o----------------|----------------|----------------|-----------------o||
 ||-----------------|----------------|----------------|------------------||
 ||--4--4-----4-----|-4--4-----4-----|-2--2-----2-----|-2--2-----2-------||
 ||o------5-7---7-5-|------5-7---7-5-|------3-5---5-3-|------3-5---5-3--o||
 ||-----------------|----------------|----------------|------------------||
 ||-----------------|--------------------|
 ||o----------------|--------------------|
 ||-----------------|--------------------|
 ||-----------------|--------------------|
 ||o-5--5-----5-----|--5----5-----5------|
 ||-------5-8---8-5-|---------5-8----8-5-|

 


 |


 

 
 ||-----------------|--------------------|
 ||o-7--------------|-(7)----------------|
 ||--7--------------|--7--5-4------------|
 ||--7--------------|-(7)-----7-5-4------|
 ||o----------------|--------------------|
 ||-----------------|--------------------|
 |------------------|--------------------|
 |------------------|--------------------|
 |------------------|--------------------|
 |------------------|--------------------|
 |-5---5------5-----|--5---5------5------|
 |-------5--8---8-5-|---------5-8---8-5--|

 


 |


 

 
 |------------------|--------------------|
 |-7-----5------8---|-(8)--5\------------|
 |-7-----5------9---|-(9)--5\------------|
 |------------------|--------------------|
 |------------------|--------------------|
 |------------------|--------------------|

 


 


 1.


 

 
 |----------------|------------------|------------------|
 |----------------|------------------|------------------|
 |----------------|------------------|------------------|
 |----------------|------------------|------------------|
 |-3--3-----3-----|--3---3-----3-----|-3---3------3-----|
 |------3-6---6-3-|--------3-6---6-3-|-------3--6---6-3-|

 


 |


 

 
 |----------------|------------------|------------------|
 |-5--------------|-(5)--------------|-5-----3------6---|
 |-5--------------|-(5)--------------|-5-----3------7---|
 |-5--------------|-(5)--------------|------------------|
 |----------------|------------------|------------------|
 |----------------|------------------|------------------|

 


 


 2.


 

 
 |--------------------||-------------|------||
 |-------------------o||-------------|------||
 |--------------------||-------------|------||
 |--------------------||-5\----------|------||
 |--3---3------3-----o||-3\----------|------||
 |---------3-6---6-3--||-------------|------||

 


 |


 

 
 |--------------------||-------------|------||
 |-(6)--3\-----------o||-------------|------||
 |-(7)--3\------------||-------------|------||
 |--------------------||-5\----------|------||
 |-------------------o||-3\----------|------||
 |--------------------||-------------|------||

 


 


 [4/4] [2/4] [3/4] [4/4] [3/4]  

 
 ||----------------------|----------|------------|---------------|------------|
 ||o---------------------|----------|------------|---------------|------------|
 ||----------------------|----------|------------|---------------|------------|
 ||------------------4---|-(4)-0----|-5---4-2----|-0-------------|-0----------|
 ||o-/5------/7----------|----------|------------|------3-2-0----|------3-2-0-|
 ||----------------------|----------|------------|---------------|------------|

 


 |


 

 
 ||---0-------0------2---|----------|------------|---------------|------------|
 ||o-----3-------0-----0-|-----3----|------------|---------------|------------|
 ||--------2-------2-----|--2--4----|------------|---------------|------------|
 ||----------------------|-----0----|-5---4-2----|-0-------------|-0----------|
 ||o---------------------|----------|------------|------3-2-0----|------3-2-0-|
 ||----------------------|----------|------------|---------------|------------|

 


 


 [4/4]  

 
 |------------------|-------------------|-----------------|--------------------||
 |------------------|-------------------|-----------------|-------------------o||
 |------------------|-------------------|-----------------|--------------------||
 |------------------|-------------------|-----------------|--------------------||
 |-3---3------3-----|--3---3------3-----|-3---3-----3-----|--3----3-----3-----o||
 |-------3--6---6-3-|---------3-6---6-3-|-------3-6---6-3-|---------3-6---6-3--||

 


 |


 

 
 |------------------|-------------------|-----------------|--------------------||
 |-5----------------|-(5)---------------|-6-----5-------6-|-(6)-----5---------o||
 |-5----------------|-(5)---------------|---7-------7-----|-----7-------7------||
 |-5----------------|-(5)---------------|-----8-------8---|-------8-------8----||
 |-3----------------|-(3)---------------|-----------------|-------------------o||
 |------------------|-------------------|-----------------|--------------------||

 


 |


 | Gtr III


 

 
 |------------------|-------------------|-----------------|--------------------||
 |-5-----3------6---|-(6)--3\-----------|-----------------|-------------------o||
 |-5-----3------7---|-(7)--3\-----------|-----------------|--------------------||
 |------------------|-------------------|-----------------|--------------------||
 |------------------|-------------------|-----------------|-------------------o||
 |------------------|-------------------|-----------------|--------------------||
 |-----------------|-------------------|-------------------|--------------------|
 |-----------------|-------------------|-------------------|--------------------|
 |-----------------|-------------------|-------------------|--------------------|
 |-----------------|-------------------|-------------------|--------------------|
 |-5---5-----5-----|--5----5-----5-----|--5----5-----5-----|--5----5-----5------|
 |-------5-8---8-5-|---------5-8---8-5-|---------5-8---8-5-|---------5-8---8-5--|

 


 |


 

 
 |-----------------|-------------------|-------------------|--------------------|
 |-7-----5-------7-|-(7)-----5-------7-|-(7)-----5-------7-|-(7)-----8----------|
 |---7-------7-----|-----7-------7-----|-----7-------7-----|-----7-------7------|
 |-----7-------7---|-------7-------7---|-------7-------7---|-------7-------7----|
 |-----------------|-------------------|-------------------|--------------------|
 |-----------------|-------------------|-------------------|--------------------|
 |-----------------|-------------------|-------------------|-------------------||
 |-----------------|-------------------|-------------------|-------------------||
 |-----------------|-------------------|-------------------|-------------------||
 |-----------------|-------------------|-------------------|-------------------||
 |-3---3-----3-----|--3----3-----3-----|--3----3-----3-----|--3----3-----3-----||
 |-------3-6---6-3-|---------3-6---6-3-|---------3-6---6-3-|---------3-6---6-3-||

 


 |


 

 
 |-----------------|-------------------|-------------------|-------------------||
 |-8-----7-------5-|-(5)-----7-------8-|-(8)-----7-------5-|-(5)-----8---------||
 |---7-------7-----|-----7-------7-----|-----7-------7-----|-----7-------7-----||
 |-----5-------5---|-------5-------5---|-------5-------5---|-------5-------5---||
 |-----------------|-------------------|-------------------|-------------------||
 |-----------------|-------------------|-------------------|-------------------||
 ||-----------------|----------------|----------------|-----------------|
 ||o----------------|----------------|----------------|-----------------|
 ||-----------------|----------------|----------------|-----------------|
 ||-----------------|----------------|----------------|-----------------|
 ||o-5--5-----5-----|-5--5-----5-----|-5--5-----5-----|-5--5-----5------|
 ||-------5-8---8-5-|------5-8---8-5-|------5-8---8-5-|------5-8---8-5--|

 


 |


 

 
 ||-----------------|----2-----------|----2-----------|----2------------|
 ||o-7--7-----------|----3-----------|----3-----------|----3------------|
 ||--7--7-----------|----2-----------|-2--2-----------|----2------------|
 ||--7--7-----------|-0--------------|-0--------------|-0---------------|
 ||o-5----------5-3-|-0----------5-3-|------------5-3-|-0----------5-3--|
 ||-----------------|----------------|----------------|-----------------|
 |----------------|----------------|----------------|-----------------||
 |----------------|----------------|----------------|----------------o||
 |----------------|----------------|----------------|-----------------||
 |----------------|----------------|----------------|-----------------||
 |-3--3-----3-----|-3--3-----3-----|-3--3-----3-----|-3--3-----3-----o||
 |------3-6---6-3-|------3-6---6-3-|------3-6---6-3-|------3-6---6-3--||

 


 |


 

 
 |----------------|----0-----------|----0-----------|----0------------||
 |-5--5-----------|----1-----------|----3-----------|----3-----------o||
 |-5--5-----------|----0-----------|----0-----------|----0------------||
 |-5--5-----------|-0--------------|-2--------------|-0---------------||
 |-3----------0-2-|-3----------0-2-|-3----------0-2-|-3----------2-3-o||
 |----------------|----------------|----------------|-----------------||
 ||------------------------|--------------------|
 ||o-----------------------|--------------------|
 ||------------------------|--------------------|
 ||------------------------|--------------------|
 ||o--5--5--------5--------|--5---5-----5-------|
 ||-----------5-8------8-5-|--------5-8----8--5-|

 


 |


 | ~~~~~~~~~~~~~~~~~~~~~~~~~~~~~~~~~~~~~~~~~~~


 

 
 ||------------------------|--------------------|
 ||o-15----15-------15-----|-15--15-------15-15-|
 ||--14----14-------14-----|-14--14-------14-14-|
 ||------------------------|--------------------|
 ||o-----------------------|--------------------|
 ||------------------------|--------------------|
 |-----------------------|---------------------|
 |-----------------------|---------------------|
 |-----------------------|---------------------|
 |-----------------------|---------------------|
 |--5--5--------5--------|--5---5-----5--------|
 |----------5-8------8-5-|--------5-8----8--5--|

 


 |


 |~~~~~~~~~~~~~~~~~~~~~~~~~~~~~~~~~~~~~~~~~~~~


 

 
 |-----------------------|---------------------|
 |-15----15-------15-----|-15--15-------15-15--|
 |-14----14-------14-----|-14--14-------14-14--|
 |-----------------------|---------------------|
 |-----------------------|---------------------|
 |-----------------------|---------------------|
 |---------------------|--------------------------|
 |---------------------|--------------------------|
 |---------------------|--------------------------|
 |---------------------|--------------------------|
 |--3--3------3--------|---3------3--------3------|
 |--------3-6----6---3-|-------------3--6-----6-3-|

 


 |


 

 
 |---------------------|--------------------------|
 |---------------------|--------------------------|
 |-12----12------------|--------------------------|
 |-14----12-----12--14-|-(14)-12----14-12---------|
 |--------------15-----|---------15-------15------|
 |---------------------|--------------------------|
 |------------------------|-----------------------||--------------|------*|
 |------------------------|----------------------o||--------------|------*|
 |------------------------|-----------------------||--------------|------*|
 |------------------------|-----------------------||--5\----------|------*|
 |-3--3--------3----------|--3-----3------3------o||--3\----------|------*|
 |-------3--6-----6--3----|----------3--6----6-3--||--------------|------*|

 


 |


 | ~~~~~~~~~~~~~~~~~~~~~~


 

 
 |------------------------|-----------------------||--------------|------*|
 |------------------------|-------13---13---13---o||-13\----------|------*|
 |------------------------|-------12---12---12----||-12\----------|------*|
 |---14-12----------12-14-|-12--------------------||--------------|------*|
 |---------15-14-15-------|----15----------------o||--------------|------*|
 |------------------------|-----------------------||--------------|------*|

 


 


 Tablature Legend


 

 
 ----------------

 


 h - hammer-on


 p - pull-off


 b - bend


 r - bend release (if no number after the r, then release immediately)


 /\ - slide into or out of (from/to "nowhere")


 s - legato slide


 S - shift slide


 - natural harmonic


 (n) - artificial harmonic


 ~ - vibrato


 PM - palm muting


 = - hold bend; also acts as connecting device for hammers/pulls


 - volume swell (louder/softer)


 


 Misc Legend


 

 
 -----------


Important: The song above is NOT stored on the Chordie server. The original song is hosted at www.guitaretab.com. Chordie works as a search engine and provides on-the-fly formatting. Chordie does not index songs against artists'/composers' will. To remove this song please click here.

This song is displayed as text-only. Transposing and tuning is only available for chordpro-songs.
Rate #1 of 2 versions

Login - add to songbook

SHARE PAGE  




You need to log in to post comments