Guitar Tabs, Chords and Lyrics
Major upgrade!! After one year development the new version of Chordie is now online! Please give feedback.


Babies  Pulp

(Jarvis Cocker, Russell Senior, Steve Mackey, Candida Doyle, Nick Banks)
Intro
[Dmaj7]  
 
 ---------------------------------|
 ---------------------------------|
 -----6-6---6-----6-6---6-----6-6-|
 -7-7-----7---7-7-----7---7-7-----|
 ---------------------------------|
 ---------------------------------|

[G]  
 
 ---------------------------------|
 ---------------------------------|
 -----4-4---4-----4-4---4-----4-4-|
 -5-5-----5---5-5-----5---5-5-----|
 ---------------------------------|
 ---------------------------------|

[Dmaj7] [G]  
 
 -3-4-5------5-4-3-|
 ------------------|
 ------------------|
 ------------------|
 ------------------|
 ------------------|

[Dmaj7] [G]  
 
 --------------- --------------------------------------------------|
 --------------- --------------------------------------------------|
 --------------- --------------------------------------------------|
 -----0-----0--- --------------------------------------------------|
 -0h2---0h2---2- -------4----4-------------------5----5------------|
 --------------- -5--5----5----5-5--5-5-4--3--3----3----3-3--3-3-4-|

Well it happened years ago
When you lived on Stanhope Road
We listened to your sister
When she came home from school
'Cos she was two years older
And she had boys in her room
I listened outside, I heard her
Alright
Well that was alright for a while
But soon I wanted more
I wanted to see as well as hear and so I
I hid inside her wardrobe
And she came home round four
And she was with some kid called David
From the garage up the road
I listened outside, I heard her
Alright
Chorus
[Em]Oh, I wanna take you [G]home
I wanna give you [D]children
And you might be my [G]girlfriend
Yeah yeah yeah yeah yeah yeah
[Dmaj7] [G]  
 
 -5---5-------3-|
 -7---7-7-----3-|
 -6---6---6---4-|
 -7---7-----7-5-|
 -5---5---------|
 ---------------|

When I saw you next day
I really couldn't tell
'Cos you might go and tell your mother
And so you went with Neve
Oh yeah, and Neve was coming on
And I thought I heard you laughing
When his mum and dad were gone
I listened outside, I heard you
Alright
Oh, I wanna take you home
I wanna give you children
And you might be my girlfriend
Yeah yeah yeah yeah yeah yeah
Oh yeah
[Dmaj7] [G]  
 
 -5---5-------3----------------|
 -7---7-7-----3----------------|
 -6---6---6---4----------------|
 -7---7-----7-5------0-----0---|
 -5---5----------0h2---0h2---2-|
 ------------------------------|

Oh well, I guess
It couldn't last too long
I came home one day
And all her things were gone
I fell asleep inside
I never heard her come
Oh, and she opened up the wardrobe
And I had to get it on, yeah
Oh, listen
 
 -3-2---0--3-2----0-2-|
 -----3--------3------|
 ---------------------|
 ---------------------|
 ---------------------|
 ---------------------|

Oh we were on the bed
When you came home
I heard you stop
Outside the door
I know you won't believe it's true
I only went with her 'cos she looks like you
My God!
Oh, I wanna take you home
I wanna give you children
And you might be my girlfriend
Yeah yeah yeah yeah yeah
[Dmaj7]Oh[G]
Yeah yeah yeah yeah yeah yeah
Yeah yeah yeah yeah yeah yeah
Yeah yeah yeah yeah yeah yeah
Yeah yeah yeah yeah yeah yeah
Yeah
Yeah yeah yeah yeah yeah yeah
Yeah
Yeah yeah yeah yeah yeah yeah
Oh, yeah.
[Dmaj7] 

Important: The song above is NOT stored on the Chordie server. The original song is hosted at www.guitaretab.com. Chordie works as a search engine and provides on-the-fly formatting. Chordie does not index songs against artists'/composers' will. To remove this song please click here.

Text color:
Chord color:
Chord grids: 
Font size:    
Page size: 

D Dmaj7 Em G
Rate #1 of 6 versions

Jango Player

Login - add to songbook

SHARE PAGE  



You need to log in to post comments