Guitar Tabs, Chords and Lyrics
Major upgrade!! After one year development the new version of Chordie is now online! Please give feedback.


No One Knows  Queens of the Stone Age

Submitted By: bobby taylor
Email: lilsk8erdude6@aol.com
Band: Queens of the Stone Age
Song: No One Knows
Intro :
Riff 1
 
 E-|-------------------------|
 B-|-------------------------|
 G-|-------------------------|
 D-|--10---10---10---10------|
 A-|--10---10---10---10------|
 E-|---8----8----8----8------|

Riff 2
 
 E-|--------------------------|------------------------|
 B-|--------------------------|------------------------| p = pull off
 G-|--10-10p8------10-10p8----|-10-10p8-----10-10p8----| s = slide
 D-|----------10-----------10-|---------10----------10-|
 A-|--------------------------|------------------------|
 E-|--------------------------|------------------------|

Riff 3
 
 E-|--------------------------|------------------------|
 B-|--------------------------|---------------let ring-|
 G-|--10-10p8------10-10s12-10|-10-10p8---------10-----|
 D-|----------10--------------|---------10-8----10-----|
 A-|--------------------------|------------------------|
 E-|--------------------------|------------------------|

betwean the verses riff 2 is played again
Verse :
___ repeat 5 times ____
|Cm | G B Cm
 
 E-|-----------------------------------------------------------
 B-|-----------------------------------------------------------
 G-|----------------------------------------------------------- repeat bar
 D-|-10-10-10-10-10-10-10-10---5-5-5-5-5-5-5-5-9-9-9-9-9-9-9-9-
 A-|-10-10-10-10-10-10-10-10---5-5-5-5-5-5-5-5-9-9-9-9-9-9-9-9-
 E-|--8--8--8--8--8--8--8--8---3-3-3-3-3-3-3-3-7-7-7-7-7-7-7-7-

We get some rules ... no one knows
Chorus :
played faster
 
 E-|------------------------------------------------
 A-|------------------------------------------------
 G-|------------------------------------------------
 D-|-10---10---10---10--9-9-9-9-9-9-9-9-9-9-9-9-9-9-
 A-|-10---10---10---10--9-9-9-9-9-9-9-9-9-9-9-9-9-9-
 E-|--8----8----8----8--7-7-7-7-7-7-7-7-7-7-7-7-7-7-

I realize ... (can't understand what he's singing)
Bridge :
(play the whole thing 2 times)
[Cm]  
 
 E-|--------------------------------|
 A-|--------------------------------|
 G-|5-5-5-5-5-5-5-5-5-5-5-5-5-5-5-5-|
 D-|5-5-5-5-5-5-5-5-5-5-5-5-5-5-5-5-|
 A-|3-3-3-3-3-3-3-3-3-3-3-3-3-3-3-3-|
 E-|--------------------------------|

[Cm] [G] [G#] [B] [G] [F] [G]  
 
 E-|-----------------------------------| ----
 B-|-----------------------------------| ----
 G-|-5-5-5-5-5-5-5-5-------------------| ----
 D-|-5-5-5-5-5-5-5-5--5--6--9--5--3--5-| -10-
 A-|-3-3-3-3-3-3-3-3--5--6--9--5--3--5-| -10- 


Important: The song above is NOT stored on the Chordie server. The original song is hosted at www.guitaretab.com. Chordie works as a search engine and provides on-the-fly formatting. Chordie does not index songs against artists'/composers' will. To remove this song please click here.

Text color:
Chord color:
Chord grids: 
Font size:    
Page size: 

B Cm F G G#
Rate #3 of 8 versions

Jango Player

Login - add to songbook

SHARE PAGE  




You need to log in to post comments