Guitar Tabs, Chords and Lyrics
Major upgrade!! After one year development the new version of Chordie is now online! Please give feedback.


Subterranean Homesick Alien   Radiohead

 
 E||--5----5---5-----------|------4--------------|----------------------|
 B||--6----------6h5-------|---------4-----------|----------------------|
 G||--7--7---7-------7--6--|--5--------6h5-------|----------------------|
 D||--7--------------------|--6------------6--5--|--4---4----------4----|
 A||--5--------------------|--6------------------|--5------5----------5-|
 E||-----------------------|--4------------------|--5--------3h5h3------|

 


 (6/8)


 


 

 
 [ Gtr. 1 P.S.---------------------|
 [|-------------------------|-------------7~~~~~~~~~---|
 [|-------------------------|----------6---------------|
 [|-------------------------|------7-------------------|
 [|--------4---4-3-3---3--1-|--------------------------|
 [|--------------x----------|--------------------------|
 [|--3h5h3---5---4---4------|--------------------------|

 


 [


 [ Gtr. 2 Clean w/Tremolo (Ed)


 

 
 [|-------------------------|------------------------|
 [|-------------------------|--15--------------------|
 [|-------------------------|--16--------------------|
 [|-------------------------|--15--------------------|
 [|-------------------------|------------------------|
 [|-------------------------|------------------------|

 


 [


 [ Gtr. 3 (Thom's Keyboard arranged for Guitar)


 

 
 [|-------------------------|------------------------|
 [|-------------------------|--6---------------------|
 [|-------------------------|--4---------------------|
 [|-------------------------|--5---------------------|
 [|-------------------------|--x---------------------|
 [|-------------------------|--3---------------------|

 


 


 [ Gtr. 1


 

 
 [ P.S.------------------------------------------------------------------|
 [|-------------7~~~~~~~~~-|--------------------------|------------------|
 [|----------5-------------|--------15-13-12-13-12-13-|--12--------------|
 [|------7-----------------|--------------------------|------------------|
 [|------------------------|--------------------------|------------------|
 [|------------------------|--------------------------|------------------|
 [|------------------------|--------------------------|------------------|

 


 [


 [ Gtr. 2


 

 
 [|------------------------|--------------------------|----------------|
 [|--15--------------------|--13----------------------|--12------------|
 [|--16--------------------|--12----------------------|--12------------|
 [|--14--------------------|--13----------------------|--12------------|
 [|------------------------|--------------------------|----------------|
 [|------------------------|--------------------------|----------------|

 


 [


 [ Gtr. 3


 

 
 [|------------------------|--------------------------|----------------|
 [|--5---------------------|--4-----------------------|--3-------------|
 [|--4---------------------|--5-----------------------|--4-------------|
 [|--5---------------------|--5-----------------------|--5-------------|
 [|--x---------------------|--x-----------------------|--x-------------|
 [|--3---------------------|--3-----------------------|--3-------------|

 


 


 [ Gtr. 1


 

 
 [ P.S.-----------------------------------------------|
 [|------------7-~~~~~~~~~-|------------7-~~~~~~~~~---|
 [|---------6--------------|---------5----------------|
 [|------7-----------------|-----7--------------------|
 [|------------------------|--------------------------|
 [|------------------------|--------------------------|
 [|------------------------|--------------------------|

 


 [


 [ Gtr. 2


 

 
 [|------------------------|------------------------|
 [|--15--------------------|------------------------|
 [|--16--------------------|--16--------------------|
 [|--15--------------------|--14--------------------|
 [|------------------------|------------------------|
 [|------------------------|------------------------|

 


 [


 [ Gtr. 3


 

 
 [|------------------------|------------------------|
 [|--6---------------------|--5---------------------|
 [|--4---------------------|--4---------------------|
 [|--5---------------------|--5---------------------|
 [|--x---------------------|--x---------------------|
 [|--3---------------------|--3---------------------|

 


 


 [ Gtr. 1


 

 
 [|-------------------------|----------------|
 [|-------15-13-12-13-12-13-|--12------------|
 [|-------------------------|----------------|
 [|-------------------------|----------------|
 [|-------------------------|----------------|
 [|-------------------------|----------------|

 


 [


 [ Gtr. 2


 

 
 [|-------------------------|----------------|
 [|-------------------------|----------------|
 [|--12---------------------|--12------------|
 [|-------------------------|----------------|
 [|-------------------------|----------------|
 [|-------------------------|----------------|

 


 [


 [ Gtr. 3


 

 
 [|-------------------------|----------------|
 [|--4----------------------|--3-------------|
 [|--5----------------------|--4-------------|
 [|--5----------------------|--5-------------|
 [|--x----------------------|--x-------------|
 [|--3----------------------|--3-------------|

 


 


 The breath of the morning I keep forgetting the


 [ Gtr. 3


 

 
 [|----------------------------|---------------------|
 [|--6-------------------------|--5------------------|
 [|--4-------------------------|--4------------------|
 [|--5-------------------------|--5------------------|
 [|--x-------------------------|--x------------------|
 [|--3-------------------------|--3------------------|

 


 


 smell of the warm summer air I


 [ Gtr. 1 P.S.*


 

 
 [|--------------------------|-------------------|
 [|--------------------------|----------3(15)----|
 [|--------------------------|-------------------|
 [|--------------------------|-------------------|
 [|--------------------------|-------------------|
 [|--------------------------|-------------------|

 


 [


 [ Gtr. 3


 

 
 [|--------------------------|-------------------|
 [|--4-----------------------|--3----------------|
 [|--5-----------------------|--4----------------|
 [|--5-----------------------|--5----------------|
 [|--x-----------------------|--x----------------|
 [|--3-----------------------|--3----------------|

 


 [


 

 
 [ |-----------------------------------|

 


 [ |*Note: Jonny picks the 3 and then |


 [ | uses his Pitch shifter to "glide" |


 [ | the note up one octave to the note|


 [ | in parenthesis. |


 

 
 [ |-----------------------------------|

 


 


 live in a town where you can't smell a thing


 [ Gtr. 3


 

 
 [|----------------------------|---------------------|
 [|--6-------------------------|--5------------------|
 [|--4-------------------------|--4------------------|
 [|--5-------------------------|--5------------------|
 [|--x-------------------------|--x------------------|
 [|--3-------------------------|--3------------------|

 


 


 you watch your feet for cracks in the pavement


 

 
 [ Gtr. 1 P.S.---------------------|
 [|---------------------|------------------------|------------7-------------|
 [|---------------------|------------------------|---------6----------------|
 [|---------------------|------------------------|-----7--------------------|
 [|---------------------|------------------------|--------------------------|
 [|---------------------|------------------------|--------------------------|
 [|---------------------|------------------------|--------------------------|

 


 [


 [ Gtr. 3


 

 
 [|---------------------|------------------------|------------------------|
 [|--4------------------|--3---------------------|--6---------------------|
 [|--5------------------|--4---------------------|--4---------------------|
 [|--5------------------|--5---------------------|--5---------------------|
 [|--x------------------|--x---------------------|--x---------------------|
 [|--3------------------|--3---------------------|--3---------------------|

 


 


 [ Gtr. 1


 

 
 [ P.S.-----------------------------------------------------------------|
 [|------------7-----------|--------------------------|------------------|
 [|---------5--------------|--------15-13-12-13-12-13-|--12--------------|
 [|------7-----------------|--------------------------|------------------|
 [|------------------------|--------------------------|------------------|
 [|------------------------|--------------------------|------------------|
 [|------------------------|--------------------------|------------------|

 


 [


 [ Gtr. 3


 

 
 [|------------------------|--------------------------|----------------|
 [|--5---------------------|--4-----------------------|--3-------------|
 [|--4---------------------|--5-----------------------|--4-------------|
 [|--5---------------------|--5-----------------------|--5-------------|
 [|--x---------------------|--x-----------------------|--x-------------|
 [|--3---------------------|--3-----------------------|--3-------------|

 


 


 And up above the aliens hover making home movies for the folks back home


 [ Gtr. 1 P.S.


 

 
 [|--------------|--------------|--------------|-------------------|
 [|--------------|--------------|--------------|--------3(15)------|
 [|--------------|--------------|--------------|-------------------|
 [|--------------|--------------|--------------|-------------------|
 [|--------------|--------------|--------------|-------------------|
 [|--------------|--------------|--------------|-------------------|

 


 [


 [ Gtr. 2


 

 
 [|--------------|--------------|--------------|---------15--------|
 [|--15----------|--15----------|--13----------|--12---------------|
 [|--16----------|--16----------|--12----------|--12---------------|
 [|--15----------|--14----------|--13----------|--12---------------|
 [|--------------|--------------|--------------|-------------------|
 [|--------------|--------------|--------------|-------------------|

 


 [


 [ Gtr. 3


 

 
 [|--------------|--------------|--------------|-------------------|
 [|--6-----------|--5-----------|--4-----------|--3----------------|
 [|--4-----------|--4-----------|--5-----------|--4----------------|
 [|--5-----------|--5-----------|--5-----------|--5----------------|
 [|--x-----------|--x-----------|--x-----------|--x----------------|
 [|--3-----------|--3-----------|--3-----------|--3----------------|

 


 


 of all these weird creatures who lock up their spirits, drill holes in themselves and live for


 [ Gtr. 1 P.S.*


 

 
 [|--------------|----------------|----------------|--------------|
 [|--------------|---------3/4(16)|----------------|--------------|
 [|--------------|----------------|----------------|--------------|
 [|--------------|----------------|----------------|--------------|
 [|--------------|----------------|----------------|--------------|
 [|--------------|----------------|----------------|--------------|

 


 [


 [ Gtr. 2


 

 
 [|--------------|----------------|----------------|-------15-----|
 [|--15----------|--15------------|--13------------|--12----------|
 [|--16----------|--16------------|--12------------|--12----------|
 [|--15----------|--14------------|--13------------|--12----------|
 [|--------------|----------------|----------------|--------------|
 [|--------------|----------------|----------------|--------------|

 


 [


 [ Gtr. 3


 

 
 [|--------------|----------------|----------------|--------------|
 [|--6-----------|--5-------------|--4-------------|--3-----------|
 [|--4-----------|--4-------------|--5-------------|--4-----------|
 [|--5-----------|--5-------------|--5-------------|--5-----------|
 [|--x-----------|--x-------------|--x-------------|--x-----------|
 [|--3-----------|--3-------------|--3-------------|--3-----------|

 


 [


 

 
 [ |-----------------------------------------------------|

 


 [ |*Note: Jonny picks the 3 and then simultaneously |


 [ | slides to 4 while using his Pitch shifter to "glide"|


 [ | the note up one octave to the note in parenthesis. |


 

 
 [ |-----------------------------------------------------|

 


 


 their secrets


 [ Gtr. 1


 

 
 [ P.S.---------------------------------------------------------------|
 [|---------8--7---------|----------8--7----------|------------------------|
 [|---------------8------|----------------8-------|------------------------|
 [|------------------10--|--9----------------10---|--8-------8---7---------|
 [|----------------------|------------------------|------------------10----|
 [|----------------------|------------------------|------------------------|
 [|----------------------|------------------------|------------------------|

 


 [


 [ Gtr. 2


 

 
 [|----------------------|------------------------|----------------------|
 [|----------------------|------------------------|----------------------|
 [|---------5--4--0------|----------5--4--0-------|----------5--4--0-----|
 [|------------------3---|--2-----------------2---|--1----------------2--|
 [|----------------------|------------------------|----------------------|
 [|----------------------|------------------------|----------------------|

 


 [


 [ Gtr. 3


 

 
 [|----------------------|------------------------|----------------------|
 [|--6-------------------|--5---------------------|--4-------------------|
 [|--4-------------------|--4---------------------|--5-------------------|
 [|--5-------------------|--5---------------------|--5-------------------|
 [|--x-------------------|--x---------------------|--x-------------------|
 [|--3-------------------|--3---------------------|--3-------------------|

 


 


 They're all uptight uptight


 [ Gtr. 1


 

 
 [ P.S.---------------------------------------------------------------------------|
 [|--------------------|------3-----3------3------3--|------3-----3-----3-----3---|
 [|--------------------|----3-----3------3------3----|----3-----3-----3-----3-----|
 [|--------------------|--2-----0--------------------|----------------------------|
 [|--10--9-------------|---------------3-------------|--2-----0-------------------|
 [|------------10------|---------------------3-------|--------------3-------------|
 [|--------------------|-----------------------------|--------------------3-------|

 


 [


 [ Gtr. 2


 

 
 [|--------------------|-----------------------------|--------------------------|
 [|--------------------|-----------------------------|--------------------------|
 [|--------------------|-----------------------------|--------------------------|
 [|--0-----------------|-----------------------------|--------------------------|
 [|--------------------|-----------------------------|--------------------------|
 [|--------------------|-----------------------------|--------------------------|

 


 [


 [ Gtr. 3


 

 
 [|--------------------|--5-----3--------------------|--------------------------|
 [|--3-----------------|---------------6-------------|--5-----3-----------------|
 [|--4-----------------|---------------------5-------|--------------5-----------|
 [|--5-----------------|-----------------------------|--------------------5-----|
 [|--x-----------------|-----------------------------|--------------------------|
 [|--3-----------------|-----------------------------|--------------------------|

 


 


 uptight


 [ Gtr. 1


 

 
 [|----------------------|----------------------|------3-----3-----3-----3--|
 [|----------------------|----------------------|----3-----3-----3-----3----|
 [|----------------------|----------------------|--2-----0------------------|
 [|----------------------|--0--0--------0-------|--------------3------------|
 [|--0h2-2-3---0h2-2-3---|-------3--2h3---3-0-2-|--------------------3------|
 [|----------------------|----------------------|---------------------------|

 


 [


 [ Gtr. 3


 

 
 [|----------------------|----------------------|--5-----3------------------|
 [|--3-3---3---3-3---3---|--3--3---3----3---3---|--------------6------------|
 [|--4-4-x-5---4-4-x-5---|--4--4-x-5----5---4---|--------------------5------|
 [|--x-x-x-x---x-x-x-x---|--x--x-x-x----x---x---|---------------------------|
 [|--5-5-x-5---5-5-x-5---|--5--5-x-5----5---5---|---------------------------|
 [|----------------------|----------------------|---------------------------|

 


 


 uptight


 [ Gtr. 1


 

 
 [|------3-----3-----3------3--|----------------------|--------------------------|
 [|----3-----3-----3------3----|----------------------|--------------------------|
 [|----------------------------|----------------------|------------------------0-|
 [|--2-----0-------------------|----------------------|------------------0-2-3---|
 [|--------------3-------------|--0h2-2-3---0h2-2-3---|----0-2-3-2-0-2-3---------|
 [|--------------------3-------|----------------------|--3-----------------------|

 


 [


 [ Gtr. 3


 

 
 [|----------------------------|----------------------|--------------------------|
 [|--5-----3-------------------|--3-3---3---3-3---3---|--3---3-----3----3----3---|
 [|--------------5-------------|--4-4-x-5---4-4-x-5---|--4---4--x--5----5----4---|
 [|--------------------5-------|--x-x-x-x---x-x-x-x---|--x---x--x--x----x----x---|
 [|----------------------------|--5-5-x-5---5-5-x-5---|--5---5--x--5----5----5---|
 [|----------------------------|----------------------|--------------------------|

 


 


 uptight uptight


 [ Gtr. 1


 

 
 [|------3-----3-----3-----3-|------3------3-----3------3--|------------|----------|
 [|----3-----3-----3-----3---|----3------3-----3------3----|------------|----------|
 [|--2-----0-----------------|-----------------------------|------------|----------|
 [|--------------3-----------|--2------0-------------------|------------|----------|
 [|--------------------3-----|---------------3-------------|------------|----------|
 [|--------------------------|---------------------3-------|------------|----------|

 


 [


 [ Gtr. 3


 

 
 [|--5-----3-----------------|-----------------------------|------------|----------|
 [|--------------6-----------|--5------3-------------------|--6---------|--5-------|
 [|--------------------5-----|---------------5-------------|--4---------|--4-------|
 [|--------------------------|---------------------5-------|--5---------|--5-------|
 [|--------------------------|-----------------------------|--x---------|--x-------|
 [|--------------------------|-----------------------------|--3---------|--3-------|

 


 


 uhhhh


 [ Gtr. 2


 

 
 [|----------------------|----------------------|
 [|----------------------|----------------------|
 [|----------------------|--------------12--14--|
 [|----------------------|--------12/14---------|
 [|----------------------|----------------------|
 [|----------------------|----------------------|

 


 [


 [ Gtr. 3


 

 
 [|----------------------|----------------------|
 [|--4-------------------|--3-------------------|
 [|--5-------------------|--4-------------------|
 [|--5-------------------|--5-------------------|
 [|--x-------------------|--x-------------------|
 [|--3-------------------|--3-------------------|

 


 


 [ Gtr. 2


 

 
 [|-------------------------|------------------|
 [|--------15----17h15------|------17h15-------|
 [|--14/16----16-------16---|------------16----|
 [|-------------------------|------------------|
 [|-------------------------|------------------|
 [|-------------------------|------------------|

 


 [


 [ Gtr. 3


 

 
 [|-------------------------|------------------|
 [|--6----------------------|--5---------------|
 [|--4----------------------|--4---------------|
 [|--5----------------------|--5---------------|
 [|--x----------------------|--x---------------|
 [|--3----------------------|--3---------------|

 


 


 I wish that they'd swoop down


 [ Gtr. 2


 

 
 [|--------------------|--------------------|------------------|
 [|--------13----------|--13-------12-------|------------------|
 [|-----------12-------|--12-------12-------|------------------|
 [|--------------13----|--12-------12-------|------------------|
 [|--------------------|--------------------|------------------|
 [|--------------------|--------------------|------------------|

 


 [


 [ Gtr. 3


 

 
 [|--------------------|--------------------|------------------|
 [|--4-----------------|--3-----------------|--6---------------|
 [|--5-----------------|--4-----------------|--4---------------|
 [|--5-----------------|--5-----------------|--5---------------|
 [|--x-----------------|--x-----------------|--x---------------|
 [|--3-----------------|--3-----------------|--3---------------|

 


 


 in a country lane late at night when I'm driving, take me onboard their


 [ Gtr. 1 P.S.


 

 
 [|--------------|--------------|------------------|--------------|
 [|--------------|--------------|--------3(15)-----|--------------|
 [|--------------|--------------|------------------|--------------|
 [|--------------|--------------|------------------|--------------|
 [|--------------|--------------|------------------|--------------|
 [|--------------|--------------|------------------|--------------|

 


 [


 [ Gtr. 3


 

 
 [|--------------|--------------|------------------|--------------|
 [|--5-----------|--4-----------|--3---------------|--6-----------|
 [|--4-----------|--5-----------|--4---------------|--4-----------|
 [|--5-----------|--5-----------|--5---------------|--5-----------|
 [|--x-----------|--x-----------|--x---------------|--x-----------|
 [|--3-----------|--3-----------|--3---------------|--3-----------|

 


 


 beautiful ship show me the world as I'd like to see it


 [ Gtr. 1


 [ P.S.* P.S. P.S.


 

 
 [|----------------|-----------------|--------------------|--------------|
 [|---------3/4(16)|----------3/7(19)|---------8(20)------|--------------|
 [|----------------|-----------------|--------------------|--------------|
 [|----------------|-----------------|--------------------|--------------|
 [|----------------|-----------------|--------------------|--------------|
 [|----------------|-----------------|--------------------|--------------|

 


 [


 [ Gtr. 3


 

 
 [|----------------|-----------------|--------------------|--------------|
 [|--5-------------|--4--------------|--3-----------------|--6-----------|
 [|--4-------------|--5--------------|--4-----------------|--4-----------|
 [|--5-------------|--5--------------|--5-----------------|--5-----------|
 [|--x-------------|--x--------------|--x-----------------|--x-----------|
 [|--3-------------|--3--------------|--3-----------------|--3-----------|

 


 


 [ Gtr. 1 .5 .5


 

 
 [|----------15--17--|--19br---(19)-17--15------|------------------|
 [|------------------|----------------------15br|------------------|
 [|------------------|--------------------------|------------7--9--|
 [|------------------|--------------------------|------------------|
 [|------------------|--------------------------|------------------|
 [|------------------|--------------------------|------------------|

 


 [


 [ Gtr. 3


 

 
 [|------------------|--------------------------|------------------|
 [|--5---------------|--4-----------------------|--3---------------|
 [|--4---------------|--5-----------------------|--4---------------|
 [|--5---------------|--5-----------------------|--5---------------|
 [|--x---------------|--x-----------------------|--x---------------|
 [|--3---------------|--3-----------------------|--3---------------|

 


 


 I tell all my friends but they never believe me they think that I've finally


 [ Gtr. 1


 

 
 [|------------8h10-7----|----------8h10-7----|----------8h10-7----|
 [|----------------------|--------------------|--------------------|
 [|--10---10-------------|--9---9-------------|--8---8-------------|
 [|----------------------|--------------------|--------------------|
 [|----------------------|--------------------|--------------------|
 [|----------------------|--------------------|--------------------|

 


 [


 [ Gtr. 3


 

 
 [|----------------------|--------------------|--------------------|
 [|--6-------------------|--5-----------------|--4-----------------|
 [|--4-------------------|--4-----------------|--5-----------------|
 [|--5-------------------|--5-----------------|--5-----------------|
 [|--x-------------------|--x-----------------|--x-----------------|
 [|--3-------------------|--3-----------------|--3-----------------|

 


 


 lost it completely I'd show them the stars and a meteorite


 [ Gtr. 1


 

 
 [|--11--10--8--7--------|------------8h10-7----|----------8h10-7----|
 [|----------------8-----|----------------------|--------------------|
 [|-------------------7--|--10---10-------------|--9---9-------------|
 [|----------------------|----------------------|--------------------|
 [|----------------------|----------------------|--------------------|
 [|----------------------|----------------------|--------------------|

 


 [


 [ Gtr. 3


 

 
 [|----------------------|----------------------|--------------------|
 [|--3-------------------|--6-------------------|--5-----------------|
 [|--4-------------------|--4-------------------|--4-----------------|
 [|--5-------------------|--5-------------------|--5-----------------|
 [|--x-------------------|--x-------------------|--x-----------------|
 [|--3-------------------|--3-------------------|--3-----------------|
 They'd shut me away But I'd be Al--------------------------|right
 [ Gtr. 1 P.S.---------------|
 [|---------------|--------------|------------------------|-------------7-------|
 [|---------------|--------------|------------------------|----------6----------|
 [|--8~-----------|--------------|------------------------|------7--------------|
 [|---------------|--------------|------------------------|---------------------|
 [|---------------|--------------|------------------------|---------------------|
 [|---------------|--------------|------------------------|---------------------|

 


 [


 [ Gtr. 2


 

 
 [|---------------|--------------|------------------------|-------------------|
 [|---------------|--------------|------------------------|-------------------|
 [|---------------|--------------|------------------------|--16---------------|
 [|---------------|--------------|------------------------|--15---------------|
 [|---------------|--------------|------------------------|-------------------|
 [|---------------|--------------|------------------------|-------------------|

 


 [


 [ Gtr. 3


 

 
 [|---------------|--------------|------------------------|-------------------|
 [|--4------------|--------------|--3-3--3--3--3-3--3--3--|--6----------------|
 [|--5------------|--------------|--4-4--4--4--4-4--4--4--|--4----------------|
 [|--5------------|--------------|--5-5--5--5--5-5--5--5--|--5----------------|
 [|--x------------|--------------|--x-x--x--x--x-x--x--x--|--x----------------|
 [|--3------------|--------------|--3-3--3--3--3-3--3--3--|--3----------------|

 


 


 Alright I'm


 [ Gtr. 1


 

 
 [ P.S.-----------------------------------------------------------------|
 [|-------------7----------|--------------------------|------------------|
 [|----------5-------------|--------15-13-12-13-12-13-|--12--------------|
 [|------7-----------------|--------------------------|------------------|
 [|------------------------|--------------------------|------------------|
 [|------------------------|--------------------------|------------------|
 [|------------------------|--------------------------|------------------|

 


 [


 [ Gtr. 2


 

 
 [|------------------------|--------------------------|----------------|
 [|------------------------|--13----------------------|----------------|
 [|------------------------|--12----------------------|--12------------|
 [|--14--------------------|--13----------------------|--12------------|
 [|------------------------|--------------------------|----------------|
 [|------------------------|--------------------------|----------------|

 


 [


 [ Gtr. 3


 

 
 [|------------------------|--------------------------|----------------|
 [|--5---------------------|--4-----------------------|--3-------------|
 [|--4---------------------|--5-----------------------|--4-------------|
 [|--5---------------------|--5-----------------------|--5-------------|
 [|--x---------------------|--x-----------------------|--x-------------|
 [|--3---------------------|--3-----------------------|--3-------------|

 


 


 Alright Al-


 [ Gtr. 1


 

 
 [ P.S.------------------------------------------|
 [|--------------7---------|-------------7-----------|
 [|----------6-------------|----------5--------------|
 [|------7-----------------|------7------------------|
 [|------------------------|-------------------------|
 [|------------------------|-------------------------|
 [|------------------------|-------------------------|

 


 [


 [ Gtr. 2


 

 
 [|------------------------|-----------------------|
 [|--------------15--------|-------------15--------|
 [|----------16------16----|---------16------16----|
 [|------15----------------|-----14----------------|
 [|------------------------|-----------------------|
 [|------------------------|-----------------------|

 


 [


 [ Gtr. 3


 

 
 [|------------------------|-----------------------|
 [|--6---------------------|--5--------------------|
 [|--4---------------------|--4--------------------|
 [|--5---------------------|--5--------------------|
 [|--x---------------------|--x--------------------|
 [|--3---------------------|--3--------------------|

 


 


 -right I'm just Uptight


 [ Gtr. 1 P.S.


 

 
 [|--------------------------|------------------|------3------3-------3------3--|
 [|--------15-13-12-13-12-13-|--8(20)-----------|----3------3-------3------3----|
 [|--------------------------|------------------|--2------0---------------------|
 [|--------------------------|------------------|----------------3--------------|
 [|--------------------------|------------------|------------------------3------|
 [|--------------------------|------------------|-------------------------------|

 


 [


 [ Gtr. 2


 

 
 [|--------------------------|------------------|--5------3---------------------|
 [|-----------13-------------|--12--------------|----------------6--------------|
 [|----------------12--------|--12--------------|------------------------5------|
 [|---------------------13---|--12--------------|-------------------------------|
 [|--------------------------|------------------|-------------------------------|
 [|--------------------------|------------------|-------------------------------|

 


 [


 [ Gtr. 3


 

 
 [|--------------------------|------------------|-------------------------------|
 [|--4-----------------------|--3---------------|-------------------------------|
 [|--5-----------------------|--4---------------|-------------------------------|
 [|--5-----------------------|--5---------------|-------------------------------|
 [|--x-----------------------|--x---------------|-------------------------------|
 [|--3-----------------------|--3---------------|-------------------------------|

 


 


 Uptight


 [ Gtr. 1


 

 
 [|------3-----3-----3-----3--|----------------------|-----------------------|
 [|----3-----3-----3-----3----|----------------------|-----------------------|
 [|---------------------------|----------------------|-----------------------|
 [|--2-----0------------------|----------------------|--0--0---------0-------|
 [|--------------3------------|--0h2-2-3---0h2-2-3---|-------3---2h3---3-0-2-|
 [|--------------------3------|----------------------|-----------------------|

 


 [


 [ Gtr. 3


 

 
 [|---------------------------|----------------------|-----------------------|
 [|--5-----3------------------|----------------------|-------------3---------|
 [|--------------5------------|--2h4-4-5---2h4-4-5---|--2h4-4-5----------5---|
 [|--------------------5------|----------------------|-----------------------|
 [|---------------------------|----------------------|-----------------------|
 [|---------------------------|----------------------|-----------------------|

 


 


 Uptight Uptight


 [ Gtr. 1


 

 
 [|------3-----3-----3-----3--|------3-----3-----3-----3--|----------------------|
 [|----3-----3-----3-----3----|----3-----3-----3-----3----|----------------------|
 [|--2-----0------------------|---------------------------|----------------------|
 [|--------------3------------|--2-----0------------------|----------------------|
 [|--------------------3------|--------------3------------|--0h2-2-3---0h2-2-3---|
 [|---------------------------|--------------------3------|----------------------|

 


 [


 [ Gtr. 3


 

 
 [|--5-----3------------------|---------------------------|----------------------|
 [|--------------6------------|--5-----3------------------|----------------------|
 [|--------------------5------|--------------5------------|--2h4-4-5---2h4-4-5---|
 [|---------------------------|--------------------5------|----------------------|
 [|---------------------------|---------------------------|----------------------|
 [|---------------------------|---------------------------|----------------------|

 


 


 [ Gtr. 1


 

 
 [|--------------------------|
 [|--------------------------|
 [|------------------------0-|
 [|------------------0-2-3---|
 [|----0-2-3-2-0-2-3---------|
 [|--3-----------------------|

 


 [


 [ Gtr. 3


 

 
 [|--------------------------|
 [|--3---3-1-----0h1-3-1---0-|
 [|----------------------2---|
 [|--------------------------|
 [|--------------------------|
 [|--------------------------|

 


 


 Uptight Uptight


 [ Gtr. 1


 

 
 [|------3-----3-----3-----3--|------3-----3-----3-----3--|
 [|----3-----3-----3-----3----|----3-----3-----3-----3----|
 [|--2-----0------------------|---------------------------|
 [|--------------3------------|--2-----0------------------|
 [|--------------------3------|--------------3------------|
 [|---------------------------|--------------------3------|

 


 [


 [ Gtr. 3


 

 
 [|--5-----3------------------|---------------------------|
 [|--------------6------------|--5-----3------------------|
 [|--------------------5------|--------------5------------|
 [|---------------------------|--------------------5------|
 [|---------------------------|---------------------------|
 [|---------------------------|---------------------------|

 


 


 [ Gtr. 1


 

 
 [|----------------------|--------------------------|
 [|----------------------|--------------------------|
 [|----------------------|--------------------------|
 [|----------------------|--0---0-----------0-------|
 [|--0h2-2-3---0h2-2-3---|--------3-----2h3---3-0-2-|
 [|----------------------|--------------------------|

 


 [


 [ Gtr. 3


 

 
 [|----------------------|--------------------0-1-3-|
 [|----------------------|------0-1-0---0-1-3-------|
 [|--2h4-4-5---2h4-4-5---|--0-2-------2-------------|
 [|----------------------|--------------------------|
 [|----------------------|--------------------------|
 [|----------------------|--------------------------|

 


 


 Ahhhhhhhhhhhh Uptight Uptight


 [ Gtr. 1


 

 
 [|------3-----3-----3-----3--|------3-----3-----3-----3--|
 [|----3-----3-----3-----3----|----3-----3-----3-----3----|
 [|--2-----0------------------|---------------------------|
 [|--------------3------------|--2-----0------------------|
 [|--------------------3------|--------------3------------|
 [|---------------------------|--------------------3------|

 


 [


 [ Gtr. 3


 

 
 [|--5-----3------------------|---------------------------|
 [|--------------6------------|--5-----3------------------|
 [|--------------------5------|--------------5------------|
 [|---------------------------|--------------------5------|
 [|---------------------------|---------------------------|
 [|---------------------------|---------------------------|
 [ Gtr. 1 P.S.----------------|
 [|--------------|-------------7--------|
 [|--------------|----------6-----------|
 [|--------------|------7---------------|
 [|--------------|----------------------|
 [|--------------|----------------------|
 [|--------------|----------------------|

 


 [


 [ Gtr. 3


 

 
 [|--------------|--------------------|
 [|--6-----------|--5-----------------|
 [|--4-----------|--4-----------------|
 [|--5-----------|--5-----------------|
 [|--x-----------|--x-----------------|
 [|--3-----------|--3-----------------|

 


 


 Uptight


 

 
 [ Gtr. 1 P.S----------------------|
 [|--------------------------|--------------|-------------7------------|
 [|-------15-13-12-13-12-----|--------------|----------6---------------|
 [|--------------------------|--------------|------7-------------------|
 [|--------------------------|--------------|--------------------------|
 [|--------------------------|--------------|--------------------------|
 [|--------------------------|--------------|--------------------------|

 


 [


 [ Gtr. 2


 

 
 [|--------------------------|--------------|------------------------|
 [|------13------------------|--------------|--15--------------------|
 [|-----------12-------------|--------------|--16--------------------|
 [|----------------14---13---|--------------|--15--------------------|
 [|--------------------------|--------------|------------------------|
 [|--------------------------|--------------|------------------------|

 


 [


 [ Gtr. 3


 

 
 [|--------------------------|--------------|------------------------|
 [|--4-----------------------|--3-----------|--6---------------------|
 [|--5-----------------------|--4-----------|--4---------------------|
 [|--5-----------------------|--5-----------|--5---------------------|
 [|--x-----------------------|--x-----------|--x---------------------|
 [|--3-----------------------|--3-----------|--3---------------------|

 


 


 [ Gtr. 1


 

 
 [ P.S.--------------------------------------------------------------|
 [|-------------7----------|------------------------|------------------|
 [|----------5-------------|------------12-13-12-13-|--12--------------|
 [|------7-----------------|------------------------|------------------|
 [|------------------------|------------------------|------------------|
 [|------------------------|------------------------|------------------|
 [|------------------------|------------------------|------------------|

 


 [


 [ Gtr. 2


 

 
 [|------------------------|------------------------|----------------|
 [|--15--------------------|------------13--12------|----------------|
 [|--16--------------------|------12------------12--|----------------|
 [|--14--------------------|--13--------------------|--12------------|
 [|------------------------|------------------------|----------------|
 [|------------------------|------------------------|----------------|

 


 [


 [ Gtr. 3


 

 
 [|------------------------|------------------------|----------------|
 [|--5---------------------|--4---------------------|--3-------------|
 [|--4---------------------|--5---------------------|--4-------------|
 [|--5---------------------|--5---------------------|--5-------------|
 [|--x---------------------|--x---------------------|--x-------------|
 [|--3---------------------|--3---------------------|--3-------------|

 


 


 Gtr. 1


 

 
 |--5--5-5-------------|--------------------|---------------|--------------||
 |--6--6-6---6h5-------|--------------------|---------------|--------------||
 |--7--7-7-------7--6--|--5-----5-6h5-------|---------------|--------------||
 |--7--7-7-------------|--6-----------6--5--|--4------------|--------------||
 |--5--5-5-------------|--6-----------------|--5------------|--------------||
 |---------------------|--4-----------------|--5------------|--------------||


Important: The song above is NOT stored on the Chordie server. The original song is hosted at www.guitaretab.com. Chordie works as a search engine and provides on-the-fly formatting. Chordie does not index songs against artists'/composers' will. To remove this song please click here.

This song is displayed as text-only. Transposing and tuning is only available for chordpro-songs.
Rate #2 of 4 versions

Login - add to songbook

SHARE PAGE  




You need to log in to post comments