Guitar Tabs, Chords and Lyrics
Major upgrade!! After one year development the new version of Chordie is now online! Please give feedback.


Airbag   Radiohead

 
 |-----------------------------------------------------------------------------------------|

 


 |Gtr. 1 Elec. w/dist.: Jonny. |


 |Gtr. 2 Overdriven Elec.: Thom. |


 |Gtr. 3 Elec. w/clean tone: Ed, his fills are placed at the end of the tab because they |


 | don't fit. |


 |Gtr. 4 Elec. w/clean tone: Jonny. |


 |Gtr. 5 Acoustic overdub: Only appears in one bar and is pointless, but it is there so |


 | I had to transcribe it. Likely played by Thom. |


 

 
 |-----------------------------------------------------------------------------------------|

 


 


 [ Gtr. 1 (Jonny)(w/dist.) *


 

 
 [E||-------------------|--------------------------|----------------------------|
 [B||-------------------|--------------------------|----------------------------|
 [G||-------------------|--------------------------|----------------------------|
 [D||-------------------|--------------------------|----------------------------|
 [A||-------------------|--------------------------|----------------------------|
 [E||----------------0--|--1////////8--------7-----|--9////////5\\\\\\\\0-------|
 [ |--------------------------------------------|

 


 [ |*Feedback likely caused by finger|


 [ |sliding too close to fret. |


 

 
 [ |---------------------------------|

 


 [ Gtr. 2 (Thom)(w/overdriven tone)


 

 
 [E||-------------------|-------0--------0------0--|-------0--------0------0--|
 [B||-------------------|--------------------------|--------------------------|
 [G||-------------------|-----2--------2-----------|-----2--------2-----------|
 [D||-------------------|--3-----------------2-----|--2-----------------2-----|
 [A||-------------------|-----------3--------------|-----------0--------------|
 [E||-------------------|--------------------------|--------------------------|

 


 


 [ Gtr. 1 Gtr. 3 plays Fill 1 (4 times)


 

 
 [|--------------------------|--------------------------|--------------------------|
 [|--------------------------|--------------------------|--------------------------|
 [|--------------------------|--------------------------|--------------------------|
 [|--------------------------|--------------------------|--------------------------|
 [|--------------------------|--------------------------|--------------------------|
 [|--1////////8--------7-----|--5////////9////////12----|--13\\\\\\\8--------7-----|

 


 [


 [ Gtr. 2


 

 
 [|-------0--------0------0--|-------0--------0------0--|-------0--------0------0--|
 [|--------------------------|--------------------------|--------------------------|
 [|-----2--------2-----------|-----2--------2-----------|-----2--------2-----------|
 [|--3-----------------2-----|--2-----------------2-----|--3-----------------2-----|
 [|-----------3--------------|-----------0--------------|-----------3--------------|
 [|--------------------------|--------------------------|--------------------------|

 


 


 [ Gtr. 1


 

 
 [|--------------------------|--------------------------|--0---------------------------|
 [|--------------------------|--------------------------|--0---------------------------|
 [|--------------------------|--------------------------|--6---------------------------|
 [|--------------------------|--------------------------|--7---------------------------|
 [|--------------------------|--------------------------|--7---------------------------|
 [|--9\\\\\\\\5\\\\\\\\0-----|--1////////8--------7-----|--5---------------------------|

 


 [


 [ Gtr. 2


 

 
 [|-------0--------0------0--|-------0--------0------0--|------------------------------|
 [|--------------------------|--------------------------|-----0---0----0--0----------0-|
 [|-----2--------2-----------|-----2--------2-----------|-----2---2----2--2----2-2-2-2-|
 [|--2-----------------2-----|--3-----------------2-----|--2--2---2----2--2------2-2-2-|
 [|-----------0--------------|-----------3--------------|--0----0----0-0--0-0------0-0-|
 [|--------------------------|--------------------------|------------------------------|

 


 


 1st Verse (00:24)


 


 [ In the next world war


 [ Gtr. 2


 

 
 [|------------------------------|------------------------------|
 [|--0-----------0---------0---0-|------------------------------|
 [|--2--2-2-2--2-2--2-2--2-2-2-2-|--6--6-6-6--6-6--6-6--6-6-6-6-|
 [|--2--2-2-2--2-2--2-2--2-2-2-2-|--7--7-7-7--7-7--7-7--7-7-7-7-|
 [|--0--0-0-0--0-0--0-0--0-0-0-0-|--0--0-0-0--0-0--0-0--0-0-0-0-|
 [|------------------------------|------------------------------|

 


 


 [ in a jack-knifed juggernaut


 [ Gtr. 2


 

 
 [|------------------------------|------------------------------|
 [|------------------------------|------------------------------|
 [|--8--8-8-8--8-8--8-8----------|--7--7-7-7--7-7--7-7----------|
 [|--7--7-7-7--7-7--7-7--2-4-2-4-|--7--7-7-7--7-7--7-7--2-4-2-4-|
 [|--0--0-0-0--0-0--0-0--0-0-0-0-|--0--0-0-0--0-0--0-0--0-0-0-0-|
 [|------------------------------|------------------------------|

 


 


 [ I am born again


 [ Gtr. 2


 

 
 [|-------------------------------|-------------------------------|
 [|-------------------------------|-------------------------------|
 [|--7--7-7-7--7-7--7-7-7---------|--9-7-6-7-6--6-6--6-6--6-6-6-6-|
 [|--7--7-7-7--7-7--7-7-7-2-4-2-4-|--7-7-7-7-7--7-7--7-7--7-7-7-7-|
 [|--0--0-0-0--0-0--0-0-0-0-0-0-0-|--0-0-0-0-0--0-0--0-0--0-0-0-0-|
 [|-------------------------------|-------------------------------|
 [ In the Ne-------------------------on

 


 [ Gtr. 2


 [ Gtr. 3 plays fill 2


 

 
 [|-------------------------------|------------------------------|
 [|-------------------------------|------------------------------|
 [|--9-7-6-7-6--6-6--6-6--6-6-6-6-|--6--6-6-6--6-6--6-6--6-6-6-6-|
 [|--7-7-7-7-7--7-7--7-7--7-7-7-7-|--7--7-7-7--7-7--7-7--7-7-7-7-|
 [|--0-0-0-0-0--0-0--0-0--0-0-0-0-|--0--0-0-0--0-0--0-0--0-0-0-0-|
 [|-------------------------------|------------------------------|

 


 


 [ sign, scrolling up and down


 [ Gtr. 2


 

 
 [|------------------------------|------------------------------|
 [|------------------------------|------------------------------|
 [|--8--8-8-8--8-8--8-8----------|--7--7-7-7--7-7--7-7----------|
 [|--7--7-7-7--7-7--7-7--2-4-2-4-|--7--7-7-7--7-7--7-7--2-4-2-4-|
 [|--0--0-0-0--0-0--0-0--0-0-0-0-|--0--0-0-0--0-0--0-0--0-0-0-0-|
 [|------------------------------|------------------------------|

 


 


 [ I am born a---gain


 [ Gtr. 2 Gtr.3 plays fill 2


 

 
 [|-------------------------------|-------------------------------|
 [|-------------------------------|-------------------------------|
 [|--7--7-7-7--7-7--7-7-7---------|--9-7-6-7-6--6-6--6-6--6-6-6-6-|
 [|--7--7-7-7--7-7--7-7-7-2-4-2-4-|--7-7-7-7-7--7-7--7-7--7-7-7-7-|
 [|--0--0-0-0--0-0--0-0-0-0-0-0-0-|--0-0-0-0-0--0-0--0-0--0-0-0-0-|
 [|-------------------------------|-------------------------------|

 


 


 [ In an Interstellar burst


 [ Gtr. 2


 

 
 [|-------------------------------|------------------------------|
 [|-------------------------------|------------------------------|
 [|--9-7-6-7-6--6-6--6-6--6-6-6-6-|--2--2-2-2--2-2--2-2--2-2-2-2-|
 [|--7-7-7-7-7--7-7--7-7--7-7-7-7-|--1--1-1-1--1-1--1-1--1-1-1-1-|
 [|--0-0-0-0-0--0-0--0-0--0-0-0-0-|--2--2-2-2--2-2--2-2--2-2-2-2-|
 [|-------------------------------|------------------------------|
 [ I am back to save the un-----------

 


 [ Gtr. 2


 

 
 [|----------------------------|----------------------------|
 [|----------------------------|----------------------------|
 [|--2--2--2--2-2--2-2--2--2-2-|--2--2--2--2-2--2-2--2--2-2-|
 [|--4--4--4--4-4--4-4--4--4-4-|--2--2--2--2-2--2-2--2--2-2-|
 [|--4--4--4--4-4--4-4--4--4-4-|--2--2--2--2-2--2-2--2--2-2-|
 [|--2--2--2--2-2--2-2--2--2-2-|--0--0--0--0-0--0-0--0--0-0-|
 [ -------------i-------verse

 


 [ Gtr. 2


 

 
 [|----------------------------|--------------0---------0-----|
 [|----------------------------|--------------2---------2---2-|
 [|--1--1--1--1-1--1-1--1--1-1-|--2--2-2-2--2-2--2-2--2-2-2-2-|
 [|--2--2--2--2-2--2-2--2--2-2-|--2--2-2-2--2-2--2-2--2-2-2-2-|
 [|--2--2--2--2-2--2-2--2--2-2-|--0--0-0-0--0-0--0-0--0-0-0-0-|
 [|--0--0--0--0-0--0-0--0--0-0-|------------------------------|

 


 


 [ Gtr. 2 Gtr. 3 plays fill 1 five times


 

 
 [|--------------0---------------|--------------0---------------|
 [|--------------2---------2---2-|--3-----------3---------3---3-|
 [|--2--2-2-2--2-2--2-2--2-2-2-2-|--2--2-2-2--2-2--2-2--2-2-2-2-|
 [|--2--2-2-2--2-2--2-2--2-2-2-2-|--3--3-3-3--3-3--3-3--3-3-3-3-|
 [|--0--0-0-0--0-0--0-0--0-0-0-0-|--0--0-0-0--0-0--0-0--0-0-0-0-|
 [|------------------------------|------------------------------|

 


 [


 [ Gtr. 1


 

 
 [|------------------------------|------------------------------|
 [|------------------------------|------------------------------|
 [|------------------------------|------------------------------|
 [|------------------------------|------------------------------|
 [|------------------------------|------------------------------|
 [|------------------------------|--13\\\\\\\\\8----------7-----|

 


 


 [ Gtr. 2


 

 
 [|--------------0---------------|--------------0---------------|
 [|--------------2---------2---2-|--------------3---------3---3-|
 [|--2--2-2-2--2-2--2-2--2-2-2-2-|--2--2-2-2--2-2--2-2--2-2-2-2-|
 [|--2--2-2-2--2-2--2-2--2-2-2-2-|--3--3-3-3--3-3--3-3--3-3-3-3-|
 [|--0--0-0-0--0-0--0-0--0-0-0-0-|--0--0-0-0--0-0--0-0--0-0-0-0-|
 [|------------------------------|------------------------------|

 


 [


 [ Gtr. 1


 

 
 [|------------------------------|------------------------------|
 [|------------------------------|------------------------------|
 [|------------------------------|------------------------------|
 [|------------------------------|------------------------------|
 [|------------------------------|------------------------------|
 [|--9\\\\\\\\\\5\\\\\\\\\\0-----|--1\\\\\\\\\\8----------7-----|

 


 [


 [ Gtr. 4 (w/clean tone)


 

 
 [ T.P.----------------------------------------------------------|
 [|------------------------------|--------------------------------|
 [|--10--------------------------|--------------------------------|
 [|------------------------------|--------------------------------|
 [|------------------------------|--------------------------------|
 [|------------------------------|--------------------------------|
 [|------------------------------|--------------------------------|

 


 


 [ In a deep


 [ Gtr. 2


 

 
 [|--------------0---------------|--------------0---------------|
 [|--------------2---------2---2-|--------------3---------3---3-|
 [|--2--2-2-2--2-2--2-2--2-2-2-2-|--2--2-2-2--2-2--2-2--2-2-2-2-|
 [|--2--2-2-2--2-2--2-2--2-2-2-2-|--3--3-3-3--3-3--3-3--3-3-3-3-|
 [|--0--0-0-0--0-0--0-0--0-0-0-0-|--0--0-0-0--0-0--0-0--0-0-0-0-|
 [|------------------------------|------------------------------|

 


 [


 [ Gtr. 1


 

 
 [|------------------------------|------------------------------|
 [|------------------------------|------------------------------|
 [|------------------------------|------------------------------|
 [|------------------------------|------------------------------|
 [|------------------------------|------------------------------|
 [|--5//////////9/////////12-----|--13\\\\\\\\\8----------7-----|

 


 [


 [ Gtr. 4


 

 
 [ T.P.----------------------------------------------------------|
 [|------------------------------|--------------------------------|
 [|--10--------------------------|--------------------------------|
 [|------------------------------|--------------------------------|
 [|------------------------------|--------------------------------|
 [|------------------------------|--------------------------------|
 [|------------------------------|--------------------------------|

 


 


 2nd Verse (1:33)


 


 [ deep sleep


 [ Gtr. 2


 

 
 [|------------------------------|------------------------------|
 [|------------------------------|------------------------------|
 [|--6--6-6-6--6-6--6-6--6-6-6-6-|--8--8-8-8--8-8--8-8--8-8-8-8-|
 [|--7--7-7-7--7-7--7-7--7-7-7-7-|--7--7-7-7--7-7--7-7--7-7-7-7-|
 [|--0--0-0-0--0-0--0-0--0-0-0-0-|--0--0-0-0--0-0--0-0--0-0-0-0-|
 [|------------------------------|------------------------------|

 


 [


 [ Gtr. 1


 

 
 [ T.P.----------------------------------------------------------|
 [|------------------------------|--------------------------------|
 [|--10------------9-------------|--7------------9----------------|
 [|------------------------------|--------------------------------|
 [|------------------------------|--------------------------------|
 [|------------------------------|--------------------------------|
 [|------------------------------|--------------------------------|

 


 


 [ of the innocent I am born


 [ Gtr. 2


 

 
 [|------------------------------|-------------------------------|
 [|------------------------------|-------------------------------|
 [|--7--7-7-7--7-7--7-7--7-7-7-7-|--7--7-7-7--7-7--7-7-7-7-7-7-7-|
 [|--7--7-7-7--7-7--7-7--7-7-7-7-|--7--7-7-7--7-7--7-7-7-7-7-7-7-|
 [|--0--0-0-0--0-0--0-0--0-0-0-0-|--0--0-0-0--0-0--0-0-0-0-0-0-0-|
 [|------------------------------|-------------------------------|

 


 [


 [ Gtr. 1


 

 
 [ T.P.-----------------------------------------------------------|
 [|------------------------------|---------------------------------|
 [|--6---------------------------|--3------------------------------|
 [|------------------------------|---------------------------------|
 [|------------------------------|---------------------------------|
 [|------------------------------|---------------------------------|
 [|------------------------------|---------------------------------|

 


 


 [ again In a fast


 [ Gtr. 2


 

 
 [|-------------------------------|-------------------------------|
 [|-------------------------------|-------------------------------|
 [|--6-6-6-6-6--6-6--6-6--6-6-6-6-|--6-6-6-6-6--6-6--6-6--6-6-6-6-|
 [|--7-7-7-7-7--7-7--7-7--7-7-7-7-|--7-7-7-7-7--7-7--7-7--7-7-7-7-|
 [|--0-0-0-0-0--0-0--0-0--0-0-0-0-|--0-0-0-0-0--0-0--0-0--0-0-0-0-|
 [|-------------------------------|-------------------------------|

 


 [


 [ Gtr. 1


 

 
 [ T.P.-------------------------------------------------------------|
 [|-------------------------------|---------------------------------|
 [|--6---5---3---2----------------|--6---5---3---2------------------|
 [|-------------------------------|---------------------------------|
 [|-------------------------------|---------------------------------|
 [|-------------------------------|---------------------------------|
 [|-------------------------------|---------------------------------|

 


 


 [ German car I'm amazed


 [ Gtr. 2


 

 
 [|------------------------------|------------------------------|
 [|------------------------------|------------------------------|
 [|--6--6-6-6--6-6--6-6--6-6-6-6-|--8--8-8-8--8-8--8-8--8-8-8-8-|
 [|--7--7-7-7--7-7--7-7--7-7-7-7-|--7--7-7-7--7-7--7-7--7-7-7-7-|
 [|--0--0-0-0--0-0--0-0--0-0-0-0-|--0--0-0-0--0-0--0-0--0-0-0-0-|
 [|------------------------------|------------------------------|

 


 [


 [ Gtr. 1


 

 
 [ T.P.-----------------------------------------------------------|
 [|------------------------------|--------------------------------|
 [|--10------------9-------------|--7------------9----------------|
 [|------------------------------|--------------------------------|
 [|------------------------------|--------------------------------|
 [|------------------------------|--------------------------------|
 [|------------------------------|--------------------------------|

 


 


 [ that I survived an airbag saved my


 [ Gtr. 2


 

 
 [|------------------------------|-------------------------------|
 [|------------------------------|-------------------------------|
 [|--7--7-7-7--7-7--7-7--7-7-7-7-|--7--7-7-7--7-7--7-7-7-7-7-7-7-|
 [|--7--7-7-7--7-7--7-7--7-7-7-7-|--7--7-7-7--7-7--7-7-7-7-7-7-7-|
 [|--0--0-0-0--0-0--0-0--0-0-0-0-|--0--0-0-0--0-0--0-0-0-0-0-0-0-|
 [|------------------------------|-------------------------------|

 


 [


 [ Gtr. 1


 

 
 [ T.P.------------------------------------------------------------|
 [|----------------8-------------|--7-------------5----------------|
 [|--6---------------------------|---------------------------------|
 [|------------------------------|---------------------------------|
 [|------------------------------|---------------------------------|
 [|------------------------------|---------------------------------|
 [|------------------------------|---------------------------------|

 


 


 [ life In an in-


 [ Gtr. 2


 

 
 [|-------------------------------|-------------------------------|
 [|-------------------------------|-------------------------------|
 [|--6-6-6-6-6--6-6--6-6--6-6-6-6-|--6-6-6-6-6--6-6--6-6--6-6-6-6-|
 [|--7-7-7-7-7--7-7--7-7--7-7-7-7-|--7-7-7-7-7--7-7--7-7--7-7-7-7-|
 [|--0-0-0-0-0--0-0--0-0--0-0-0-0-|--0-0-0-0-0--0-0--0-0--0-0-0-0-|
 [|-------------------------------|-------------------------------|

 


 [


 [ Gtr. 1


 

 
 [ T.P.-------------------------------------------------------------|
 [|-------------------------------|---------------------------------|
 [|--6---5---3---2----------------|--6---5---3---2------------------|
 [|-------------------------------|---------------------------------|
 [|-------------------------------|---------------------------------|
 [|-------------------------------|---------------------------------|
 [|-------------------------------|---------------------------------|

 


 


 2nd Chorus (2:07)


 


 [ -stellar burst I am back


 [ Gtr. 2


 

 
 [|------------------------------|----------------------------|
 [|------------------------------|----------------------------|
 [|--2--2-2-2--2-2--2-2--2-2-2-2-|--2--2--2--2-2--2-2--2--2-2-|
 [|--1--1-1-1--1-1--1-1--1-1-1-1-|--4--4--4--4-4--4-4--4--4-4-|
 [|--2--2-2-2--2-2--2-2--2-2-2-2-|--4--4--4--4-4--4-4--4--4-4-|
 [|------------------------------|--2--2--2--2-2--2-2--2--2-2-|
 [ to save the un--------------i-----------------verse

 


 [ Gtr. 2


 

 
 [|----------------------------|----------------------------|
 [|----------------------------|----------------------------|
 [|--2--2--2--2-2--2-2--2--2-2-|--1--1--1--1-1--1-1--1--1-1-|
 [|--2--2--2--2-2--2-2--2--2-2-|--2--2--2--2-2--2-2--2--2-2-|
 [|--2--2--2--2-2--2-2--2--2-2-|--2--2--2--2-2--2-2--2--2-2-|
 [|--0--0--0--0-0--0-0--0--0-0-|--0--0--0--0-0--0-0--0--0-0-|

 


 


 1st Interlude (2:18)


 


 [ Gtr. 2


 

 
 [|--------------------------|-------------------------|
 [|--0-----------------------|-------------------------|
 [|--2-----------------------|-------------------------|
 [|--2-----------------------|-------------------------|
 [|--0-----------------------|-------------------------|
 [|--------------------------|-------------------------|

 


 [


 [ Gtr. 3 (w/envelope filter) (Left Channel)


 

 
 [|--------------------------|-----------------------5-|
 [|--------------------------|-------------------------|
 [|--------------------------|-------------------------|
 [|--------------------------|-------------------------|
 [|--------------------------|-------------------------|
 [|--------------------------|-------------------------|

 


 [


 [ Gtr. 4 (w/clean tone) (Right channel)


 

 
 [ T.P.--------------------------------------------------|
 [|--------------------------|---------------------------|
 [|--10----------------------|---------------------------|
 [|--------------------------|---------------------------|
 [|--------------------------|---------------------------|
 [|--------------------------|---------------------------|
 [|--------------------------|---------------------------|

 


 


 [ Gtr. 3


 

 
 [|--5----5----4-------4--|-------7-----4--------|
 [|-----------------5-----|--7----7--7-----------|
 [|-----------------------|----------------------|
 [|-----------------------|----------------------|
 [|-----------------------|----------------------|
 [|-----------------------|----------------------|

 


 [


 [ Gtr. 4


 

 
 [ T.P.-------------------------------------------|
 [|-----------------------|------------------------|
 [|--10--------9----------|--7----------9----------|
 [|-----------------------|------------------------|
 [|-----------------------|------------------------|
 [|-----------------------|------------------------|
 [|-----------------------|------------------------|

 


 


 [ Gtr. 3 .5


 

 
 [|------------5--7----7b-|----7----5-----------|------------------------0-|
 [|--6------6-------------|----6---------6------|--6\5-5\3-3\2-2------2/3--|
 [|-----------------------|---------------------|--------------------------|
 [|-----------------------|---------------------|--------------------------|
 [|-----------------------|---------------------|--------------------------|
 [|-----------------------|---------------------|--------------------------|

 


 [


 [ Gtr. 4


 

 
 [ T.P.---------------------------------------------------------------------|
 [|------------5--7----8--|----7----5-----------|----------------------------|
 [|--6--------------------|--------------6---3--|--6---5---3---2-------------|
 [|-----------------------|---------------------|----------------------------|
 [|-----------------------|---------------------|----------------------------|
 [|-----------------------|---------------------|----------------------------|
 [|-----------------------|---------------------|----------------------------|

 


 


 [ Gtr. 3


 

 
 [|--------------------------|--5----5--5--4---(5)(5)--|
 [|--6\5-5\3-3\2-2-----2h3p2-|-------5--5--------------|
 [|-------------------2------|-------------------------|
 [|--------------------------|-------------------------|
 [|--------------------------|-------------------------|
 [|--------------------------|-------------------------|

 


 [


 [ Gtr. 4


 

 
 [ T.P.--------------------------------------------------|
 [|--------------------------|---------------------------|
 [|--6---5---3---2-----------|--10---------9-------------|
 [|--------------------------|---------------------------|
 [|--------------------------|---------------------------|
 [|--------------------------|---------------------------|
 [|--------------------------|---------------------------|

 


 [


 [ Gtr. 5 (Acoustic overdub) (Left channel)


 

 
 [|--------------------------|-------------------------|
 [|-----------x-x---x--x-----|-------------------------|
 [|-----------x-x---x--x-----|-------------------------|
 [|-----------x-x---x--x-----|-------------------------|
 [|-----------x-x---x--x-----|-------------------------|
 [|-----------x-x---x--x-----|-------------------------|

 


 


 [ gtr. 3 .5


 

 
 [|--------------0--4--4----|----------------5--7--7b-|-----7----5-----------|
 [|--7--7--7--7--7----------|--6----6--6--6--5--------|--------------6-------|
 [|--------------x----------|-------5--5--5-----------|----------------------|
 [|-------------------------|-------------------------|----------------------|
 [|-------------------------|-------------------------|----------------------|
 [|-------------------------|-------------------------|----------------------|

 


 [


 [ Gtr. 4


 

 
 [ T.P.------------------------------------------------------------------------|
 [|-------------------------|--8------7------5-----7--|--8--7----5-------------|
 [|--7-----------9----------|-------------------------|--------------6----8----|
 [|-------------------------|-------------------------|------------------------|
 [|-------------------------|-------------------------|------------------------|
 [|-------------------------|-------------------------|------------------------|
 [|-------------------------|-------------------------|------------------------|

 


 


 [ In an Interstellar bu-


 [ Gtr. 3


 

 
 [|-------------------------|----------------------|---------------------------|
 [|--6\5-5\3-3\2-2----2h3p2-|--6\5-5\3-3\2-2-------|---------------------------|
 [|------------------2------|----------------------|---------------------------|
 [|-------------------------|----------------------|---------------------------|
 [|-------------------------|----------------------|---------------------------|
 [|-------------------------|----------------------|---------------------------|

 


 [


 [ Gtr. 4


 

 
 [ T.P.--------------------------------------------------------------------------|
 [|-------------------------|----------------------|-----------------------------|
 [|--6---5---3---2----------|--6---5---3---2-------|-----------------------------|
 [|-------------------------|----------------------|-----------------------------|
 [|-------------------------|----------------------|-----------------------------|
 [|-------------------------|----------------------|-----------------------------|
 [|-------------------------|----------------------|-----------------------------|

 


 [


 [ Gtr. 2


 

 
 [|-------------------------|----------------------|---------------------------|
 [|-------------------------|----------------------|---------------------------|
 [|-------------------------|----------------------|--2-2-2-2-2-2--2-2-2-2-2-2-|
 [|-------------------------|----------------------|--1-1-1-1-1-1--1-1-1-1-1-1-|
 [|-------------------------|----------------------|--2-2-2-2-2-2--2-2-2-2-2-2-|
 [|-------------------------|----------------------|---------------------------|

 


 


 3rd Chorus (3:00)


 


 

 
 [ -urst I am back to save the uni-------------

 


 [ Gtr. 2


 

 
 [|----------------------------|----------------------------|
 [|----------------------------|----------------------------|
 [|--2--2--2--2-2--2-2--2--2-2-|--2--2--2--2-2--2-2--2--2-2-|
 [|--4--4--4--4-4--4-4--4--4-4-|--2--2--2--2-2--2-2--2--2-2-|
 [|--4--4--4--4-4--4-4--4--4-4-|--2--2--2--2-2--2-2--2--2-2-|
 [|--2--2--2--2-2--2-2--2--2-2-|--0--0--0--0-0--0-0--0--0-0-|
 [ -----------------verse

 


 [ Gtr. 2


 

 
 [|----------------------------|--------------0---------0-----|
 [|----------------------------|--------------2---------2---2-|
 [|--1--1--1--1-1--1-1--1--1-1-|--2--2-2-2--2-2--2-2--2-2-2-2-|
 [|--2--2--2--2-2--2-2--2--2-2-|--2--2-2-2--2-2--2-2--2-2-2-2-|
 [|--2--2--2--2-2--2-2--2--2-2-|--0--0-0-0--0-0--0-0--0-0-0-0-|
 [|--0--0--0--0-0--0-0--0--0-0-|------------------------------|

 


 


 [ In an interstellar burst


 [ Gtr. 2


 

 
 [|--------------0---------------|------------------------------|
 [|--------------2---------2---2-|------------------------------|
 [|--2--2-2-2--2-2--2-2--2-2-2-2-|--2--2-2-2--2-2--2-2--2-2-2-2-|
 [|--2--2-2-2--2-2--2-2--2-2-2-2-|--1--1-1-1--1-1--1-1--1-1-1-1-|
 [|--0--0-0-0--0-0--0-0--0-0-0-0-|--2--2-2-2--2-2--2-2--2-2-2-2-|
 [|------------------------------|------------------------------|
 [ I am back to save the uni------------

 


 [ Gtr. 2


 

 
 [|----------------------------|----------------------------|
 [|----------------------------|----------------------------|
 [|--2--2--2--2-2--2-2--2--2-2-|--2--2--2--2-2--2-2--2--2-2-|
 [|--4--4--4--4-4--4-4--4--4-4-|--2--2--2--2-2--2-2--2--2-2-|
 [|--4--4--4--4-4--4-4--4--4-4-|--2--2--2--2-2--2-2--2--2-2-|
 [|--2--2--2--2-2--2-2--2--2-2-|--0--0--0--0-0--0-0--0--0-0-|
 -----------------verse

 


 [ Gtr. 2


 

 
 [|----------------------------|--0----------------|
 [|----------------------------|--2----------------|
 [|--1--1--1--1-1--1-1--1--1-1-|--2----------------|
 [|--2--2--2--2-2--2-2--2--2-2-|--2----------------|
 [|--2--2--2--2-2--2-2--2--2-2-|--0----------------|
 [|--0--0--0--0-0--0-0--0--0-0-|-------------------|

 


 


 2nd Interlude (3:30)


 


 [ Gtr. 4 (w/heavy reverb)


 [ < < *


 

 
 [|---------------0--|---0----(0)------------------|-----------------------|
 [|------------------|--------------13//8\\\18--x--|-(x)-(x)-8/13\8\7/20---|
 [|------------------|---------- ---x-----------x--|-(x)-(x)---------------|
 [|------------------|--------------x-----------x--|-(x)-(x)---------------|
 [|------------------|--------------------------x--|-(x)-(x)---------------|
 [|------------------|-----------------------------|-----------------------|
 [ |---------------------------------------------|

 


 [ |*Note: Turn Sampling effects |


 [ | pedal on. Notes in parenthesis|


 [ | are not picked. |


 

 
 [ |-------------------------------|

 


 [


 [ Gtr. 5 (w/mutronics mutator envelope filter)


 

 
 [|------------------|-----------------------------|---------------------|
 [|------------------|--x--x----x--x----x--x-------|---------------------|
 [|------------------|--x--x----x--x----x--x-------|---------------------|
 [|------------------|--x--x----x--x----x--x-------|---------------------|
 [|------------------|--x--x----x--x----x--x-------|---------------------|
 [|------------------|-----------------------------|---------------------|
 [ Gtr. 4 T.P.------------------------------|
 [|---------------------|------------------|---------------------|
 [|-(x)-(x)-(x)---------|-------x-6--5--3--|--2------------------|
 [|-(x)-(x)-(x)---------|-------x----------|---------------------|
 [|-(x)-(x)-(x)---------|-------x----------|---------------------|
 [|-(x)-(x)-(x)---------|------------------|---------------------|
 [|---------------------|------------------|---------------------|

 


 [


 [ Gtr. 5 *


 

 
 [|---------------------|------------------|---------------------|
 [|-x-x---x-x---x-x-----|------------------|--x-x---x-x---x-x----|
 [|-x-x---x-x---x-x-----|------------------|--x-x---x-x---x-x----|
 [|-x-x---x-x---x-x-----|------------------|--x-x---x-x---x-x----|
 [|-x-x---x-x---x-x-----|------------------|--x-x---x-x---x-x----|
 [|---------------------|------------------|---------------------|
 [ |-------------------------------------------------|

 


 [ |*Note: Use digitech whammy pedal to lower|


 [ | the pitch of these last muted notes. |


 

 
 [ |-----------------------------------------|
 [ Gtr. 4 T.P.---------------------------------------------------|
 [|-------------------|------------5--7--|------5-------------------|
 [|----------6--5--3--|--2---------------|----8----6--8--6--5--3----|
 [|-------------------|------------------|--------------------------|
 [|-------------------|------------------|--------------------------|
 [|-------------------|------------------|--------------------------|
 [|-------------------|------------------|--------------------------|

 


 [


 [ Gtr. 5


 

 
 [|---------x---------|------------------|------------------------|
 [|---------x-x---x-x-|--x-x--x-x--x-x---|--x-x-x-x--x-x-x-x-x-x--|
 [|---------x-x-x-x-x-|--x-x--x-x--x-x---|--x-x-x-x--x-x-x-x-x-x--|
 [|-----------x-x-x-x-|--x-x--x-x--x-x---|--x-x-x-x--x-x-x-x-x-x--|
 [|-------------------|--x-x--x-x--x-x---|--x-x-x-x--x-x-x-x-x-x--|
 [|-------------------|------------------|------------------------|

 


 


 [ Gtr. 4 *


 

 
 [|--------------------5--|--7----5---------------|-------------------------------|
 [|--2----------2---------|-----8----5--8--5--5---|--5---6--5----x-----/18\-------|
 [|-----2--2--2-----4-----|-----------------------|--------------x----------------|
 [|-----------------------|-----------------------|--------------x----------------|
 [|-----------------------|-----------------------|-------------------------------|
 [|-----------------------|-----------------------|-------------------------------|
 [ |--------------------------|

 


 [ |*Note: Activate sampling|


 [ | effect on this note. |


 

 
 [ |------------------------|

 


 [ Gtr. 5


 

 
 [|-----------------------|-----------------------|-------------------------|
 [|--x-x-x-x-x-x-x-x-x-x--|--x-x-x-x-x-x-x-x-x-x--|--x-x-x-x-x-x-x-x-x-x-x--|
 [|--x-x-x-x-x-x-x-x-x-x--|--x-x-x-x-x-x-x-x-x-x--|--x-x-x-x-x-x-x-x-x-x-x--|
 [|--x-x-x-x-x-x-x-x-x-x--|--x-x-x-x-x-x-x-x-x-x--|--x-x-x-x-x-x-x-x-x-x-x--|
 [|--x-x-x-x-x-x-x-x-x-x--|--x-x-x-x-x-x-x-x-x-x--|--x-x-x-x-x-x-x-x-x-x-x--|
 [|-----------------------|-----------------------|-------------------------|

 


 


 [ Gtr. 4 *


 

 
 [|-----------------------|-------------------------|
 [|--5---x---/20\---x-(x)-|-(x)-(x)-(x)-------------|
 [|------x----------x-(x)-|-(x)-(x)-(x)-------------|
 [|-----------------x-(x)-|-(x)-(x)-(x)-------------|
 [|-----------------x-(x)-|-(x)-(x)-(x)-------------|
 [|-----------------------|-------------------------|
 [ |--------------------------------|

 


 [ |Note: This muted chord was |


 [ |struck once and the sampling |


 [ |effect repeated it. |


 

 
 [ |-----------------------------|

 


 [ Gtr. 5


 

 
 [|-----------------------|-----------------------|
 [|--x-x-x-x-x-x-x-x-x-x--|--x-x-x-x-x-x-x-x-x-x--|
 [|--x-x-x-x-x-x-x-x-x-x--|--x-x-x-x-x-x-x-x-x-x--|
 [|--x-x-x-x-x-x-x-x-x-x--|--x-x-x-x-x-x-x-x-x-x--|
 [|--x-x-x-x-x-x-x-x-x-x--|--x-x-x-x-x-x-x-x-x-x--|
 [|-----------------------|-----------------------|

 


 


 [ Gtr. 1 (w/dist.) Gtr. 3 plays fill 1 seven times


 

 
 [|-------------------------|-----------------------------|
 [|-------------------------|-----------------------------|
 [|-------------------------|-----------------------------|
 [|-------------------------|-----------------------------|
 [|-------------------------|-----------------------------|
 [|---------------------9//////13\\\\\\\\\8---------7-----|

 


 [


 [ Gtr. 4


 

 
 [|-------------------------|-----------------------------|
 [|----/18-18-18-18\--------|-----------------------------|
 [|-----------------x-------|-----------------------------|
 [|-----------------x-------|-----------------------------|
 [|-----------------x-------|-----------------------------|
 [|-------------------------|-----------------------------|

 


 


 Outro


 


 [ Gtr. 1


 

 
 [|---------------------|---------------------|----------------------|
 [|---------------------|---------------------|----------------------|
 [|---------------------|---------------------|----------------------|
 [|---------------------|---------------------|----------------------|
 [|---------------------|---------------------|----------------------|
 [|--9\\\\\\5\\\\\\0----|--1\\\\\\8------7----|--9\\\\\\5//////12----|

 


 


 [ Gtr. 1 .5


 

 
 [|----------------------|---------------------|---------------------||
 [|----------------------|---------------------|---------------------||
 [|----------------------|---------------------|---------------------||
 [|----------------------|---------------------|---------------------||
 [|----------------------|---------------------|---------------------||
 [|--13\\\\\\8\\\\\\7----|--9br-----5\\\\\\0---|--1//////8------7----||

 


 


 [ Gtr. 1


 

 
 [|--0---------------------||
 [|--0---------------------||
 [|--6---------------------||
 [|--7---------------------||
 [|--7---------------------||
 [|--5---------------------||

 


 [


 [ Gtr. 3


 

 
 [|------------------------||
 [|------------------------||
 [|------------------------||
 [|--11--------------------||
 [|------------------------||
 [|------------------------||

 


 


 ED'S FILLS


 

 
 |-------------------------------------------------------|

 


 | |


 | Fill 1 |


 

 
 | |-------------------------------------------------| |
 | |-------------------------------------------------| |
 | |-------------------------------------------------| |
 | |--14-12-11-12-11---14-12-11-12-11---14-12-11-12--| |
 | |-------------------------------------------------| |
 | |-------------------------------------------------| |

 


 | |


 | |


 | Fill 2 |


 

 
 | |--------------------------------------| |
 | |--------------------------------------| |
 | |--------------------------------------| |
 | |--14-12-11-12-11----------------------| |
 | |--------------------------------------| |
 | |--------------------------------------| |

 


 | |


 

 
 |-------------------------------------------------------|


Important: The song above is NOT stored on the Chordie server. The original song is hosted at www.guitaretab.com. Chordie works as a search engine and provides on-the-fly formatting. Chordie does not index songs against artists'/composers' will. To remove this song please click here.

This song is displayed as text-only. Transposing and tuning is only available for chordpro-songs.
Rate #1 of 9 versions

Jango Player

Login - add to songbook

SHARE PAGE  



You need to log in to post comments