Guitar Tabs, Chords and Lyrics
Major upgrade!! After one year development the new version of Chordie is now online! Please give feedback.


Wahai Kau Cinta  Radja

Penyanyi/Band : Radja
Judul Lagu : Wahai Kau Cinta
Album : Langkah Baru
Tabbed By : Nocemb™
email : aml_fl@yahoo.com
Saya belum sepenuhnya yakin semua benar. Kalau anda punya perbaikan
beritahu saya lewat email.
Reff
Distortion
[Dm] [G] [C] [F] [B]  
 
 e|-------------------5---10---5---3----------------------------3---8---3--1----------------------2--|
 b|-------------------6---10---6---3----------------------------5---8---5--1----------------------4--|
 g|-------------------7---10---7---4----------------------------5---9---5--2----------------------4--|
 D|-------------------7---12---7---5----------------------------5---10--5--3----------------------4--|
 A|-------------------5---12---5---5----------------------------3---10--3--3----------------------2--|
 E|-----------------------10-------3--------------------------------8------1-------------------------|

Wahai kau cinta... Sungguh tak ada yang bisa... Mampu berpaling darimu
[E] [Am]  
 
 e|------------7-------5---|
 b|------------9-------5---|
 g|------------9-------5---|
 D|------------9-------7---|
 A|------------7-------7---|
 E|--------------------5---|

Semua karena cinta
Solo
 
 e|------------------------------------------------------------------------------|
 b|------------------------------------------------------------------------------|
 g|------------------------------------------------------------------------------|
 D|------------------------------------------------------------------------------|
 A|--0-3-3p2-0---2-2-------0h2h3-3p2-0---2----0-3-3p2-0---2-2-------0-3-3p2-0----|
 E|------------3-----0-3-0-------------3----------------3-----0-3-0-----------3--|
 e|--7/19\7/19\7/19\7--7---8---7--5--5h7/19b--3-5-5--5-7-7--7-8-8--3--|
 b|------------------------10--8--6--------------------------------5--|
 g|------------------------9---7--5--------------------------------5--|
 D|-------------------------------------------------------------------|
 A|-------------------------------------------------------------------|
 E|-------------------------------------------------------------------|


Important: The song above is NOT stored on the Chordie server. The original song is hosted at www.guitaretab.com. Chordie works as a search engine and provides on-the-fly formatting. Chordie does not index songs against artists'/composers' will. To remove this song please click here.

Text color:
Chord color:
Chord grids: 
Font size:    
Page size: 

Am B C Dm E F G
Rate #1 of 2 versions

Login - add to songbook

SHARE PAGE  




You need to log in to post comments