Guitar Tabs, Chords and Lyrics
Server problems seems to be fixed. Chordie has been experiencing problems with songs disappearing. These issues now seems to be fixed, but still verifying the fix. If you find anything strange, please email admin@chordie.com.


Freedom   Rage Against the Machine

 
 |-----------------------------|-------------------------------|
 |-----------------------------|-------------------------------|
 |-----------------------------|-----------------------x-x-x---|
 |-----------------------------|-----------------------x-x-x---|
 |-5-------3---------5---5-----|-5-------3---------5---x-x-x---|
 |---0-3-5---5-3-5-3-------0-3-|---0-3-5---5-3-5-3-------------|

 


 


 S S S S E S S S S S S E S S S S S S E S S S S S S S S S S


 

 
 |-----------------------------|---------------------------------|
 |-----------------------------|---------------------------------|
 |-----------------------------|---------------------------------|
 |-----------------------------|-------------------5-4-3---------|
 |-5-------3---------5---5-----|-5-------3---------------5-4-3---|
 |---0-3-5---5-3-5-3-------0-3-|---0-3-5---5-3-5-3---------------|

 


 


 S S S S E S S S S S S E S S S S S S E S S S S S S E E


 

 
 |-----------------------------|-----------------------[10]-----|
 |-----------------------------|--------------------------------|
 |-----------------------------|--------------------------------|
 |-----------------------------|----------------------------12\-|
 |-5-------3---------5---5-----|-5-------3---------5--------12\-|
 |---0-3-5---5-3-5-3-------0-3-|---0-3-5---5-3-5-3--------------|

 


 


 S S S S E S S S S S S E S S S S S S E S S S S S Q S


 

 
 |-----------------------------|----------------------------|
 |-----------------------------|----------------------------|
 |-----------------------------|----------------------------|
 |-----------------------------|----------------------------|
 |-5-------3---------5---5-----|-5-------3---------5--------|
 |---0-3-5---5-3-5-3-------0-3-|---0-3-5---5-3-5-3----------|

 


 


 S S S S S S S S S S S S S S S S S S S S S S S S S S S S S S S S


 

 
 |-10-------10-10---------10---10-10-----|-10-------10-10---------------------|
 |-10-------10-10---------10---10-10-----|-10-------10-10---------5S4S5-5-----|
 |--5--------5--5----------5----5--5-----|--5--------5--5---------5S4S5-5-----|
 |--5--------5--5----------5----5--5-----|--5--------5--5---------5S4S5-5-----|
 |--5--------5--5----------5----5--5-----|--5--------5--5---------------------|
 |------0-0-------0-0-0-0------------0-0-|------0-0-------0-0-0-0---------0-0-|

 


 


 S S S S S S S S S S S S S S S S S S S S S S S S S S S S S S E


 

 
 |-10-------10-10---------10---10-10-----|-10-------10-10---------------------|
 |-10-------10-10---------10---10-10-----|-10-------10-10---------5S4S5-5-----|
 |--5--------5--5----------5----5--5-----|--5--------5--5---------5S4S5-5-12\-|
 |--5--------5--5----------5----5--5-----|--5--------5--5---------5S4S5-5-12\-|
 |--5--------5--5----------5----5--5-----|--5--------5--5---------------------|
 |------0-0-------0-0-0-0------------0-0-|------0-0-------0-0-0-0-------------|

 


 


 S S S S E S S S S S S E S S S S S S E S S S S S S S S S S


 

 
 |-----------------------------|-------------------------------|
 |-----------------------------|-------------------------------|
 |-----------------------------|-----------------------x-x-x---|
 |-----------------------------|-----------------------x-x-x---|
 |-5-------3---------5---5-----|-5-------3---------5---x-x-x---|
 |---0-3-5---5-3-5-3-------0-3-|---0-3-5---5-3-5-3-------------|

 


 


 S S S S E S S S S S S E S S S S S S E S S S S S S S S S S


 

 
 |-----------------------------|----------------------------------|
 |-----------------------------|----------------------------------|
 |-----------------------------|----------------------------------|
 |-----------------------------|-------------------5-4-3----------|
 |-5-------3---------5---5-----|-5-------3---------------5-4-3----|
 |---0-3-5---5-3-5-3-------0-3-|---0-3-5---5-3-5-3----------------|

 


 


 S S S S E S S S S S S E S S S S S S E S S S S S S E E


 

 
 |-----------------------------|-----------------------[10]-----|
 |-----------------------------|--------------------------------|
 |-----------------------------|--------------------------------|
 |-----------------------------|----------------------------12\-|
 |-5-------3---------5---5-----|-5-------3---------5--------12\-|
 |---0-3-5---5-3-5-3-------0-3-|---0-3-5---5-3-5-3--------------|

 


 


 S S S S E S S S S S S E S S S S S S E S S S S S Q S


 

 
 |-----------------------------|----------------------------|
 |-----------------------------|----------------------------|
 |-----------------------------|----------------------------|
 |-----------------------------|----------------------------|
 |-5-------3---------5---5-----|-5-------3---------5--------|
 |---0-3-5---5-3-5-3-------0-3-|---0-3-5---5-3-5-3----------|

 


 


 S S S S S S S S S S S S S S S S S S S S S S S S S S S S S S S S


 

 
 |-10-------10-10---------10---10-10-----|-10-------10-10---------------------|
 |-10-------10-10---------10---10-10-----|-10-------10-10---------5S4S5-5-----|
 |--5--------5--5----------5----5--5-----|--5--------5--5---------5S4S5-5-----|
 |--5--------5--5----------5----5--5-----|--5--------5--5---------5S4S5-5-----|
 |--5--------5--5----------5----5--5-----|--5--------5--5---------------------|
 |------0-0-------0-0-0-0------------0-0-|------0-0-------0-0-0-0---------0-0-|

 


 


 S S S S S S S S S S S S S S S S


 

 
 |-10-------10-10---------10---10-10-----|
 |-10-------10-10---------10---10-10-----|
 |--5--------5--5----------5----5--5-----|
 |--5--------5--5----------5----5--5-----|
 |--5--------5--5----------5----5--5-----|
 |------0-0-------0-0-0-0------------0-0-|

 


 


 <


 S S S S S S S S S S S S S S E Wx2 W +W


 

 
 |-10-------10-10---------------------|------------|-0--------|-(0)----|
 |-10-------10-10---------5S4S5-5-----|------------|-0--------|-(0)----|
 |--5--------5--5---------5S4S5-5-12\-|------------|-0--------|-(0)----|
 |--5--------5--5---------5S4S5-5-12\-|------------|-0--------|-(0)----|
 |--5--------5--5---------------------|------------|-0--------|-(0)----|
 |------0-0-------0-0-0-0-------------|------------|-0--------|-(0)----|

 


 


 < <[2/4]


 W H H H H W


 

 
 |----------|-------------|---------------|------|
 |----------|-------------|---------------|------|
 |----------|-------9-----|--8------------|------|
 |----------|-------------|---------------|------|
 |----------|-------7-----|--6------------|------|
 |----------|-------------|---------------|------|

 


 |


 | Gtr II


 | <


 | W H. Q +Q H. W


 

 
 |----------|----------8--|-(8)-----------|------|
 |----------|-------------|---------------|------|
 |----------|----------5--|-(5)-----------|------|
 |----------|-------------|---------------|------|
 |----------|-------------|---------------|------|
 |----------|-------------|---------------|------|

 


 


 Q=120


 [4/4] S S S S S S E. S S S E E S S S S S S E. S S S E E


 

 
 |--------------------------|--------------------------|
 |--------------------------|--------------------------|
 |--------------------------|--------------------------|
 |--------------------------|--------------------------|
 |-3-3-3-3-----5--5-3---3-5-|-3-3-3-3-----5--5-3---3-5-|
 |---------5-3--------5-----|---------5-3--------5-----|

 


 


 S S S S S S E. S S S E E S S S S S S E. S S S E E


 

 
 |--------------------------|----------------------------|
 |--------------------------|----------------------------|
 |--------------------------|----------------------------|
 |--------------------------|----------------------------|
 |-3-3-3-3-----5--5-3---3-5-|-3-3-3-3-----5--5-3---3-5---|
 |---------5-3--------5-----|---------5-3--------5-------|

 


 


 S S S S S S E. S S S E E S S S S S S E. S S S E E


 

 
 |--------------------------|--------------------------|
 |--------------------------|--------------------------|
 |--------------------------|--------------------------|
 |--------------------------|--------------------------|
 |-7-7-7-7-----9--9-7---7-9-|-7-7-7-7-----9--9-7---7-9-|
 |---------9-7--------9-----|---------9-7--------9-----|

 


 |


 | Gtr II


 | S S S S S S E. S S S E E S S S S S S E. S S S E E


 

 
 |--------------------------|--------------------------|
 |--------------------------|--------------------------|
 |--------------------------|--------------------------|
 |--------------------------|--------------------------|
 |-3-3-3-3-----5--5-3---3-5-|-3-3-3-3-----5--5-3---3-5-|
 |---------5-3--------5-----|---------5-3--------5-----|

 


 


 S S S S S S E. S S S E E S S S S S S E. S S S E E


 

 
 |--------------------------|-----------------------------|
 |--------------------------|-----------------------------|
 |--------------------------|-----------------------------|
 |--------------------------|-----------------------------|
 |-7-7-7-7-----9--9-7---7-9-|-7-7-7-7-----9--9-7---7-9----|
 |---------9-7--------9-----|---------9-7--------9--------|

 


 |


 | S S S S S S E. S S S E E S S S S S S E. S S S E E


 

 
 |--------------------------|-----------------------------|
 |--------------------------|-----------------------------|
 |--------------------------|-----------------------------|
 |--------------------------|-----------------------------|
 |-3-3-3-3-----5--5-3---3-5-|-3-3-3-3-----5--5-3---3-5----|
 |---------5-3--------5-----|---------5-3--------5--------|

 


 


 S S S S S S S E. S S S S S S S S S S S S S E. S S S S S S


 

 
 |-----------------------------------------------|-----------------------------------------------|
 |-----------------------------------------------|-----------------------------------------------|
 |-----------------------------------------------|-----------------------------------------------|
 |-----------------------------------------------|-----------------------------------------------|
 |-15-15-15-15-------17--17----17-17-17-17-17-17-|-15-15-15-15-------17--17----17-17-17-17-17-17-|
 |-------------17-15-----------------------------|-------------17-15-----------------------------|

 


 |


 | S S S S S S E. S S S E E S S S S S S E. S S S E E


 

 
 |-----------------------------------------------|-----------------------------------------------|
 |-----------------------------------------------|-----------------------------------------------|
 |-----------------------------------------------|-----------------------------------------------|
 |-----------------------------------------------|-----------------------------------------------|
 |--3--3--3--3--------5------5--3-----3-----5----|--3--3--3--3--------5------5--3-----3-----5----|
 |--------------5--3---------------5-------------|--------------5--3---------------5-------------|

 


 


 3/8


 S S S S S S E. S S S E E S S S S S S


 

 
 |--------------------------------------|---------------------|
 |--------------------------------------|---------------------|
 |--------------------------------------|---------------------|
 |--------------------------------------|---------------------|
 |-15-15-15-15-------17--17-15----15-17-|-15-15-15-15---------|
 |-------------17-15-----------17-------|-------------17-15---|

 


 |


 | S S S S S S E. S S S E E W


 

 
 |--------------------------------------|---------------------|
 |--------------------------------------|---------------------|
 |--------------------------------------|---------------------|
 |--------------------------------------|---------------------|
 |--3--3--3--3--------5---5--3-----3--5-|---------------------|
 |--------------5--3------------5-------|---------------------|

 


 


 Q=78


 [4/4] H Q E S S H.. E


 

 
 |------------------|---------------|
 |------------------|---------------|
 |------------------|-10---------10-|
 |------------10S12-|---------------|
 |-17---------------|---------------|
 |------------------|---------------|

 


 


 H +E Q S S H +E S S S S E


 

 
 |--------------------|--------------------------------|
 |--------------------|--------------------------------|
 |-9----(9)-----------|------------------------10b11r==|
 |----------10--------|-10----(10)-------10-12---------|
 |--------------10-12-|------------10-12---------------|
 |--------------------|--------------------------------|

 


 


 +E Q. Q E S S


 

 
 |--------------------------|
 |--------------------------|
 |-(10)---------------------|
 |------12----(12)\---------|
 |---------------------5S12-|
 |--------------------------|
 |--3---| |--3--| |-3--|

 


 H +E E E E E E E E E +E +Q E Q


 

 
 |---------------------------|--------------------------|
 |------------------10-11-10-|--------------------------|
 |-10----(10)-10-12----------|-12-11S9-(9)-(9)--(9)\----|
 |---------------------------|--------------------------|
 |---------------------------|--------------------------|
 |---------------------------|--------------------------|

 


 


 S S S S E S S S S E S S S S


 

 
 |-12-13-12------12-13-12------12-13-15-15b17==|
 |----------13------------13-------------------|
 |---------------------------------------------|
 |---------------------------------------------|
 |---------------------------------------------|
 |---------------------------------------------|

 


 


 ~~~~~~~


 +E S S S S S S +Q E E


 

 
 |-(15)r15-13-15-13-------------22-----|
 |------------------15-15-(15)---------|
 |-------------------------------------|
 |---------------------------------12\-|
 |---------------------------------12\-|
 |-------------------------------------|

 


 


 [7/4] S S S S S S S S S S S S S S S S S S S S S S S S S E.


 

 
 |------------------------------------------------------|
 |------------------------------------------------------|
 |------------------------------------------------------|
 |-------------5-3-5-3-5-----------------------------3--|
 |-5-3-5-3-5---------------3-2-3-2-3-----------------3--|
 |-------------------------------------5-3-5-3-5-3---3--|

 


 


 S S S S S S S S S S S S S S S S S S S S S S S S S E.


 

 
 |------------------------------------------------------|
 |------------------------------------------------------|
 |------------------------------------------------------|
 |-------------5-3-5-3-5-----------------------------3--|
 |-5-3-5-3-5---------------3-2-3-2-3-----------------3--|
 |-------------------------------------5-3-5-3-5-3---3--|

 


 


 S S S S S S S S S S S S S S S S S S S S S S S S S E.


 

 
 |------------------------------------------------------|
 |------------------------------------------------------|
 |------------------------------------------------------|
 |-------------5-3-5-3-5-----------------------------3--|
 |-5-3-5-3-5---------------3-2-3-2-3-----------------3--|
 |-------------------------------------5-3-5-3-5-3---3--|

 


 


 S S S S S S S S S S S S S S S S S S S S S S S S S E.


 

 
 |-------------------------------------------------------|
 |-------------------------------------------------------|
 |-------------------------------------------------------|
 |-------------5-3-5-3-5-----------------------------3---|
 |-5-3-5-3-5---------------3-2-3-2-3-----------------3---|
 |-------------------------------------5-3-5-3-5-3---3---|

 


 


 [4/4] S S S S S S S S S S S S X +E. T.


 

 
 |-10------------------------------------|
 |-10-------10-10---------10-------------|
 |--9--------9--9----------9---5-(5)S15--|
 |-10-------10-10---------10---5-(5)S15--|
 |----------10-10---------10---5-(5)S15--|
 |----x-x-x-------x-x-x-x----------------|

 


 


 S S S S S S S S S S S S S S S S S S S S S S S S S S S S S S S S


 

 
 |-10-------10-10---------10---10-10-----|-10-------10-10---------------------|
 |-10-------10-10---------10---10-10-----|-10-------10-10---------5S4S5-5-----|
 |--5--------5--5----------5----5--5-----|--5--------5--5---------5S4S5-5-----|
 |--5--------5--5----------5----5--5-----|--5--------5--5---------5S4S5-5-----|
 |--5--------5--5----------5----5--5-----|--5--------5--5---------------------|
 |------0-0-------0-0-0-0------------0-0-|------0-0-------0-0-0-0---------0-0-|

 


 


 S S S S S S S S S S S S S S S S S S S S S S S S S S S S S S E


 

 
 |-10-------10-10---------10---10-10-----|-10-------10-10---------------------|
 |-10-------10-10---------10---10-10-----|-10-------10-10---------5S4S5-5-----|
 |--5--------5--5----------5----5--5-----|--5--------5--5---------5S4S5-5-----|
 |--5--------5--5----------5----5--5-----|--5--------5--5---------5S4S5-5-12\-|
 |--5--------5--5----------5----5--5-----|--5--------5--5-----------------12\-|
 |------0-0-------0-0-0-0------------0-0-|------0-0-------0-0-0-0-------------|

 


 


 <


 Wx2 W +W W


 

 
 |------------|-0--------|-(0)--------|----------|
 |------------|-0--------|-(0)--------|----------|
 |------------|-0--------|-(0)--------|----------|
 |------------|-0--------|-(0)--------|----------|
 |------------|-0--------|-(0)--------|----------|
 |------------|-0--------|-(0)--------|----------|

 


 


 < < <[2/4]


 Q Q. Q. Q H. W W


 

 
 |----------------|-------------|----------|------|
 |----------------|-------------|----------|------|
 |----15----16----|-15----------|----------|------|
 |----15----16----|-15----------|----------|------|
 |----------------|-------------|----------|------|
 |----------------|-------------|----------|------|

 


 


 Q=120


 [4/4] S S S S S S E. S S S E E S S S S S S E. S S S E E


 

 
 |--------------------------|--------------------------|
 |--------------------------|--------------------------|
 |--------------------------|--------------------------|
 |--------------------------|--------------------------|
 |-3-3-3-3-----5--5-3---3-5-|-3-3-3-3-----5--5-3---3-5-|
 |---------5-3--------5-----|---------5-3--------5-----|

 


 


 S S S S S S E. S S S E E S S S S S S E. S S S E E


 

 
 |--------------------------|----------------------------|
 |--------------------------|----------------------------|
 |--------------------------|----------------------------|
 |--------------------------|----------------------------|
 |-3-3-3-3-----5--5-3---3-5-|-3-3-3-3-----5--5-3---3-5---|
 |---------5-3--------5-----|---------5-3--------5-------|

 


 


 S S S S S S E. S S S E E S S S S S S E. S S S E E


 

 
 |--------------------------------------|--------------------------------------|
 |--------------------------------------|--------------------------------------|
 |--------------------------------------|--------------------------------------|
 |--------------------------------------|--------------------------------------|
 |-10-10-10-10-------12--12-10----10-12-|-10-10-10-10-------12--12-10----10-12-|
 |-------------12-10-----------12-------|-------------12-10-----------12-------|

 


 |


 | Gtr II


 | S S S S S S E. S S S E E S S S S S S E. S S S E E


 

 
 |--------------------------------------|--------------------------------------|
 |--------------------------------------|--------------------------------------|
 |--------------------------------------|--------------------------------------|
 |--------------------------------------|--------------------------------------|
 |--3--3--3--3--------5---5--3-----3--5-|--3--3--3--3--------5---5--3-----3--5-|
 |--------------5--3------------5-------|--------------5--3------------5-------|

 


 


 S S S S S S E. S S S E E S S S S S S S S S S S S S S S S


 

 
 |--------------------------------------|------------------------------------|
 |--------------------------------------|------------------------------------|
 |--------------------------------------|------------------------------------|
 |--------------------------------------|------------------------------------|
 |-10-10-10-10-------12--12-10----10-12-|-3-3-3-3-3-3-3-3-3-3-3-3-3-3-3-3----|
 |-------------12-10-----------12-------|------------------------------------|

 


 |


 | S S S S S S E. S S S E E W


 

 
 |--------------------------------------|------------------------------------|
 |--------------------------------------|------------------------------------|
 |--------------------------------------|------------------------------------|
 |--------------------------------------|------------------------------------|
 |--3--3--3--3--------5---5--3-----3--5-|------------------------------------|
 |--------------5--3------------5-------|------------------------------------|

 


 


 S S S S S S E. S S S E E S S S S S S E. S S S E E


 

 
 |--------------------------|--------------------------|
 |--------------------------|--------------------------|
 |--------------------------|--------------------------|
 |--------------------------|--------------------------|
 |-3-3-3-3-----5--5-3---3-5-|-3-3-3-3-----5--5-3---3-5-|
 |---------5-3--------5-----|---------5-3--------5-----|

 


 


 S S S S S S E. S S S E E S S S S S S E. S S S E E


 

 
 |--------------------------|-----------------------------|
 |--------------------------|-----------------------------|
 |--------------------------|-----------------------------|
 |--------------------------|-----------------------------|
 |-3-3-3-3-----5--5-3---3-5-|-3-3-3-3-----5--5-3---3-5----|
 |---------5-3--------5-----|---------5-3--------5--------|

 


 


 S S S S S S S E. S S S S S S S S S S S S S E. S S S S S S


 

 
 |-----------------------------------------------|-----------------------------------------------|
 |-----------------------------------------------|-----------------------------------------------|
 |-----------------------------------------------|-----------------------------------------------|
 |-----------------------------------------------|-----------------------------------------------|
 |-15-15-15-15-------17--17----17-17-17-17-17-17-|-15-15-15-15-------17--17----17-17-17-17-17-17-|
 |-------------17-15-----------------------------|-------------17-15-----------------------------|

 


 |


 | Gtr II


 | S S S S S S E. S S S E E S S S S S S E. S S S E E


 

 
 |-----------------------------------------------|-----------------------------------------------|
 |-----------------------------------------------|-----------------------------------------------|
 |-----------------------------------------------|-----------------------------------------------|
 |-----------------------------------------------|-----------------------------------------------|
 |--3--3--3--3--------5------5--3-----3-----5----|--3--3--3--3--------5------5--3-----3-----5----|
 |--------------5--3---------------5-------------|--------------5--3---------------5-------------|

 


 


 S S S S S S S E. S S S S S S S S S S S S E +H


 

 
 |-----------------------------------------------|---------------------------------------|
 |-----------------------------------------------|-------------------3--(3)--------------|
 |-----------------------------------------------|-------------------2--(2)--------------|
 |-----------------------------------------------|-------------------0--(0)--------------|
 |-15-15-15-15-------17--17----17-17-17-17-17-17-|-15-15-15-15-------0--(0)--------------|
 |-------------17-15-----------------------------|-------------17-15-0--(0)--------------|

 


 |


 | S S S S S S E. S S S E E S S S S S S E. S S S E E


 

 
 |-----------------------------------------------|---------------------------------------|
 |-----------------------------------------------|---------------------------------------|
 |-----------------------------------------------|---------------------------------------|
 |-----------------------------------------------|---------------------------------------|
 |--3--3--3--3--------5------5--3-----3-----5----|--3--3--3--3-------5------5-3---3-5----|
 |--------------5--3---------------5-------------|--------------5--3------------5--------|

 


 


 Q=54


 >


 +W +W S S S S S S S S S S S S S S S S


 

 
 |------------|------------|-----------------------------------|
 |-(3)--------|-(3)--------|-----------------------------------|
 |-(2)--------|-(2)--------|-------------5-6-7-----------5-6-7-|
 |-(0)--------|-(0)--------|-------5-6-7-----------5-6-7-------|
 |-(0)--------|-(0)--------|--5--8-------------5-8-------------|
 |-(0)--------|-(0)--------|-----------------------------------|

 


 |


 | <


 | W W +W


 

 
 |------------|------------|-----------------------------------|
 |------------|------------|-----------------------------------|
 |------------|--2---------|-(2)-------------------------------|
 |------------|------------|-----------------------------------|
 |------------|------------|-----------------------------------|
 |------------|------------|-----------------------------------|

 


 


 S S S S S S S S S S S S S S S S


 

 
 |--------------------------------------|
 |--------------------------------------|
 |-------------5-6-7-----------5-6-7----|
 |-------5-6-7-----------5-6-7----------|
 |--5--8-------------5-8----------------|
 |--------------------------------------|

 


 |


 | +W


 

 
 |--------------------------------------|
 |--------------------------------------|
 |-(2)----------------------------------|
 |--------------------------------------|
 |--------------------------------------|
 |--------------------------------------|

 


 


 S S S S S S S S S S S S S S S S


 

 
 |-----------------------------------|
 |-----------------------------------|
 |-------------5-6-7-----------5-6-7-|
 |-------5-6-7-----------5-6-7-------|
 |--5--8-------------5-8-------------|
 |-----------------------------------|

 


 |


 | +W


 

 
 |-----------------------------------|
 |-----------------------------------|
 |-(2)-------------------------------|
 |-----------------------------------|
 |-----------------------------------|
 |-----------------------------------|

 


 


 S S S S S S S S S S S S S S S S S S S S S S S S S S S S S S S S


 

 
 |-----------------------------------|-----------------------------------|
 |-----------------------------------|-----------------------------------|
 |-------------5-6-7-----------5-6-7-|-------------5-6-7-----------5-6-7-|
 |-------5-6-7-----------5-6-7-------|-------5-6-7-----------5-6-7-------|
 |--5--8-------------5-8-------------|--5--8-------------5-8-------------|
 |-----------------------------------|-----------------------------------|

 


 |


 | +W +W


 

 
 |-----------------------------------|-----------------------------------|
 |-----------------------------------|-----------------------------------|
 |-(2)-------------------------------|-(2)-------------------------------|
 |-----------------------------------|-----------------------------------|
 |-----------------------------------|-----------------------------------|
 |-----------------------------------|-----------------------------------|

 


 


 S S S S S S S S S S S S S S S S


 

 
 |-----------------------------------|
 |-----------------------------------|
 |-------------5-6-7-----------5-6-7-|
 |-------5-6-7-----------5-6-7-------|
 |--5--8-------------5-8-------------|
 |-----------------------------------|

 


 |


 | +W


 

 
 |-----------------------------------|
 |-----------------------------------|
 |-(2)-------------------------------|
 |-----------------------------------|
 |-----------------------------------|
 |-----------------------------------|

 


 


 S S S S S S S S S S S S S S S S S S S S S S S S S S S S S S S S


 

 
 |-----------------------------------|-----------------------------------|
 |-----------------------------------|-----------------------------------|
 |-------------5-6-7-----------5-6-7-|-------------5-6-7-----------5-6-7-|
 |-------5-6-7-----------5-6-7-------|-------5-6-7-----------5-6-7-------|
 |--5--8-------------5-8-------------|--5--8-------------5-8-------------|
 |-----------------------------------|-----------------------------------|

 


 |


 | +W +W


 

 
 |-----------------------------------|-----------------------------------|
 |-----------------------------------|-----------------------------------|
 |-(2)-------------------------------|-(2)-------------------------------|
 |-----------------------------------|-----------------------------------|
 |-----------------------------------|-----------------------------------|
 |-----------------------------------|-----------------------------------|

 


 


 Q=55


 S S S S S S S S S S S S S S S S


 

 
 ||----------------------------------------|
 ||o---------------------------------------|
 ||----------------------------------------|
 ||--0-3-5-6-7-10-11-12-0-3-5-6-7-10-11-12-|
 ||o-0-3-5-6-7-10-11-12-0-3-5-6-7-10-11-12-|
 ||--0-3-5-6-7-10-11-12-0-3-5-6-7-10-11-12-|

 


 


 S S S S S S S S S S S S S S S S


 

 
 |-----------------------------------------||
 |----------------------------------------o||
 |-----------------------------------------||
 |-0-3-5-6-7-10-11-12-0-3-5-6-7-10-11-12---||
 |-0-3-5-6-7-10-11-12-0-3-5-6-7-10-11-12--o||
 |-0-3-5-6-7-10-11-12-0-3-5-6-7-10-11-12---||

 


 


 S S S S S S S S S S S S S S S S


 

 
 ||----------------------------------------|
 ||o---------------------------------------|
 ||----------------------------------------|
 ||--0-3-5-6-7-10-11-12-0-3-5-6-7-10-11-12-|
 ||o-0-3-5-6-7-10-11-12-0-3-5-6-7-10-11-12-|
 ||--0-3-5-6-7-10-11-12-0-3-5-6-7-10-11-12-|

 


 


 1.


 S S S S S S S S S S S S S S S S


 

 
 |-----------------------------------------||
 |----------------------------------------o||
 |-----------------------------------------||
 |-0-3-5-6-7-10-11-12-0-3-5-6-7-10-11-12---||
 |-0-3-5-6-7-10-11-12-0-3-5-6-7-10-11-12--o||
 |-0-3-5-6-7-10-11-12-0-3-5-6-7-10-11-12---||

 


 


 2.


 S S S S S S S S S S S S S S S S +Q. E E E E E +Q H.


 

 
 |--------------------------------------|-----------------|------------|
 |------------------------------------3-|-(3)---3-3-3-3-3-|-(3)--3-----|
 |------------------------------------2-|-(2)---2-2-2-2-2-|-(2)--2-----|
 |-0-3-5-6-7-10-11-12-0-3-5-6-7-10-11-0-|-(0)---0-0-0-0-0-|-(0)--0-----|
 |-0-3-5-6-7-10-11-12-0-3-5-6-7-10-11-0-|-(0)---0-0-0-0-0-|-(0)--0-----|
 |-0-3-5-6-7-10-11-12-0-3-5-6-7-10-11-0-|-(0)---0-0-0-0-0-|-(0)--0-----|

 


 


 >


 +W +W +W


 

 
 |------------|------------|--------*|
 |-(3)--------|-(3)--------|-(3)----*|
 |-(2)--------|-(2)--------|-(2)----*|
 |-(0)--------|-(0)--------|-(0)----*|
 |-(0)--------|-(0)--------|-(0)----*|
 |-(0)--------|-(0)--------|-(0)----*|

 


 


 


 Duration Legend


 

 
 ---------------
 W - whole; H - half; Q - quarter; E - 8th; S - 16th; T - 32nd; X - 64th; a - acciaccatura

 


 + - note tied to previous; . - note dotted; .. - note double dotted


 Uncapitalized letters represent notes that are staccato (1/2 duration)


 Irregular groupings are notated above the duration line


 Duration letters will always appear directly above the note/fret number it represents the


 duration for. Duration letters with no fret number below them represent rests. Multi-


 bar rests are notated in the form Wxn, where n is the number of bars to rest for. Low


 melody durations appear below the staff


 


 Tablature Legend


 

 
 ----------------

 


 h - hammer-on


 p - pull-off


 b - bend


 pb - pre-bend


 r - bend release (if no number after the r, then release immediately)


 /\ - slide into or out of (from/to "nowhere")


 s - legato slide


 S - shift slide


 - natural harmonic


 (n) - artificial harmonic


 n(n) - tapped harmonic


 ~ - vibrato


 tr - trill


 T - tap


 TP - trem. picking


 PM - palm muting


 \n/ - tremolo bar dip; n = amount to dip


 \n - tremolo bar down


 n/ - tremolo bar up


 /n\ - tremolo bar inverted dip


 = - hold bend; also acts as connecting device for hammers/pulls


 - volume swell (louder/softer)


 x - on rhythm slash represents muted slash


 o - on rhythm slash represents single note slash


 


 Misc Legend


 

 
 -----------


Important: The song above is NOT stored on the Chordie server. The original song is hosted at www.guitaretab.com. Chordie works as a search engine and provides on-the-fly formatting. Chordie does not index songs against artists'/composers' will. To remove this song please click here.

This song is displayed as text-only. Transposing and tuning is only available for chordpro-songs.
Rate #1 of 2 versions

Jango Player

Login - add to songbook

SHARE PAGE  



You need to log in to post comments