Guitar Tabs, Chords and Lyrics
Server problems seems to be fixed. Chordie has been experiencing problems with songs disappearing. These issues now seems to be fixed, but still verifying the fix. If you find anything strange, please email admin@chordie.com.


Dust  Rage

Band: Rage
Album: Reflections of a Shadow
Song: Dust
Copyright (c) (Noise) (1990)
Version 1.0 - (19/05/06)
Transcribed By: Steve
Email: stephen.elvidge1@ntlworld.com
. - palm mute / - slide up to
\ - slide down to ~ - vibrato
h - hammer on b - Bend
p - pull off Suffixes for bend
t - tap f - full bend h - half bend
ph - pinched harmonic q - quarter bend t - tap bend
p - pre bend
* - see comment ^ - Hold bend r release bend
x - Stuccatto ~ - vibrato bend
, - slight palm mute () - ghost note, sustained note
" - tremolo note - harmonic
Tuning E A D G B E
Intro
Acoustic guitar(let notes ring out)
 
 |-------------------------------------------------0-------|
 |---------0-------------0-------------0-------------3-----|
 |---0---3---3-----0---3---3-----0---3---3-----0-------0---|
 |-----2-------2-----2-------2-----2-------2-----2-------2-|
 |-0-------------------------------------------------------|
 |---------------3-------------1-------------3-------------| Rpt 3 X
 |-------------------------------------------|
 |---------0-------------0-------------0-----|
 |---0---3---3-----0---3---3-----0---3---3---|
 |-----2-------2-----2-------2-----2-------2-|
 |-0-----------------------------------------|
 |---------------3-------------1-------------|

Distorted
Verse
[--PM--] 
 
 |-------------------------------------------------------------------|
 |-------------------------------------------------------------------|
 |-------------------------------------------------------------------|
 |-5--(3)--4--(4)--2--(2)--2--(2)----------5--(5)-/10-(10)-\---------|
 |-3--(3)--2--(2)--0--(0)--0--(0)--3-3-3-3-3--(3)-/8--(8)--\5--(5)---|
 |----------------------------------------------------------3--(3)---|

Guitar 1
[--PM--] 
 
 [-------------------------------------------------------|
 [-------------------------------------------------------|
 [-------------------------------------------------------|
 [-2--(2)--2--4/--------5--(5)-/10-(10)-\5--(5)--4--(4)--|
 [-0--(0)--0--2/3-3-3-3-3--(3)-/8--(8)--\3--(3)--2--(2)--|
 [-------------------------------------------------------|

[Guitar 2 ~~~~~~~~~~~~~~~
 
 [-------------------------------------------------------|
 [-------------------------------------------------------|
 [-------------------------------------------------------|
 [-------------------------------------------------------|
 [---------------------------------------3-------2-------|
 [-------------------------------------------------------|

Chorus
 
 |--------------------------------------------------|
 |--------------------------------------------------|
 |--------------------------------------------------|
 |-7--(7)--7--9/10-(10)-1010\2--(2)--2--4/5--(5)----|
 |-5--(5)--5--7/8--(8)--8-8-\0--(0)--0--2/3--(3)----|
 |--------------------------------------------------|

Guitar 1
 
 [----------------------------------------------------|
 [----------------------------------------------------|
 [----------------------------------------------------|
 [-7--(7)--7--9/10-(10)-1010\-------------------------|
 [-5--(5)--5--7/8--(8)--8-8-\5----(5)----5----(5)-----|
 [---------------------------3----(3)----3----(3)-----|

[Guitar 2
[ dive h h h h
 
 [----------------------------------------------------|
 [----------------------------------------------------|
 [-------------------------------0-1p0-1p0-1p0-1p0-|
 [----------------------------------------------------|
 [----------------------------------------------------|
 [----------------------------------------------------|

Rpt
Guitar solo
[A] ~~~~~[G#]~ ph [G] ~~~~
 
 |-----------------------------------------|
 |-----------------------------------------|
 |-/9-----------5--------------------------|
 |----10-----------------------------------|
 |----------5/7---5\3-5-5p3p0-3------------|
 |------------------------------3-3----/---|

[D] ~~~~ [F] h h
 
 |--------------------------------------------------------|
 |--------------------------------------------------------|
 |---7---/\--5-7p5\4-5p4-----------------------------5-5--|
 |-7---------------------7-5p3p2-----------------3/7------|
 |-------------------------------2-3-5p3p2p0/3/5----------|
 |--------------------------------------------------------|

[C]Guit[B]ar 1[A] [G]
 
 [--------------------|
 [--------------------|
 [-5-4-4---\2---0-----|
 [--------------------|
 [--------------------|
 [--------------------|

[Guitar 2
 
 [--------------------|
 [--------------------|
 [--------------------|
 [-7-5-5---\3---2-----|
 [--------------------|
 [--------------------|

[--PM--] 
 
 |-------------------------------------------------------|
 |-------------------------------------------------------|
 |-------------------------------------------------------|
 |-2--(2)--2--4/--------5--(5)-/10-(10)-\----------------|
 |-0--(0)--0--2/3-3-3-3-3--(3)-/8--(8)--\5--(5)----------|
 |---------------------------------------3--(3)--3-3-3---|

Guitar 1
[--PM--] 
 
 [-------------------------------------------------------|
 [-------------------------------------------------------|
 [-------------------------------------------------------|
 [-2--(2)--2--4/--------5--(5)-/10-(10)-\5--(5)--4--(4)--|
 [-0--(0)--0--2/3-3-3-3-3--(3)-/8--(8)--\3--(3)--2--(2)--|
 [-------------------------------------------------------|

[Guitar 2 ~~~~~~~~~~~~~~~
 
 [-------------------------------------------------------|
 [-------------------------------------------------------|
 [-------------------------------------------------------|
 [-------------------------------------------------------|
 [---------------------------------------3-------2-------|
 [-------------------------------------------------------|

Rpt Chorus
End of chorus
[A] ~~~~~~~~~~~~~~~~~
 
 |---------------------|
 |---------------------|
 |------------------|
 |-----------------x\--|
 |-----------------x\--|
 |-----------------x\--|

2nd Guitar solo
[A]~~~~~~~ h h t [G#] ~~~~~ [G] ~~~
 
 |-----------------------------------------------------------------|
 |-8fb------r\-17p10-12-13-17p-13-12----12-----------7br-----------|
 |-----------------------------------14----9-10p9----7br5---5------|
 |------------------------------------------------12------7---7----|
 |-----------------------------------------------------------------|
 |-----------------------------------------------------------------|

~~~~~[D] [F]
 
 |-------------------------------------------------------------------|
 |-------------------------------------------------------------------|
 |----5--------------------------------------------------------------|
 |---------------------------------------------------5-------7-8-5-7-|
 |-/7---5-3p0-5----\---7---5-----5---7-8-5-7-8-5-7-8---5-7-8---------|
 |-----------------\-5---8---5-8---8---------------------------------|

[G]~~~ ~~~~
 
 |--------------------------------------------|
 |-----6p5---5--------------------------------|
 |---5-----7---7---5-\4-5p4---5---------------|
 |-8------------------------7---7-------------|
 |--------------------------------7---\dive---|
 |--------------------------------------------|

[A] ~~~~~ ~~~~~ [G#]~~~~~ ~~~~~ [G] ~~~~~~~
 
 |-------------------------------------------------------------|
 |---------------------------------------10-10(10)10/13------\-|
 |-5-------7-------9------/12----------------------------------|
 |---7----\--7----\--7---------------/7--------7---7/10------\-|
 |----------------------------12---\---------------------------|
 |-------------------------------------------------------------|

[D] ~~~~[F]
 
 |----------19-17-15-17-20-19-20p19\17-15----15-17-15----15--|
 |-20-fb----------------------------------18----------18-----|
 |-----------------------------------------------------------|
 |-----------------------------------------------------------|
 |-----------------------------------------------------------|
 |-----------------------------------------------------------|

[G] ~~~~~~ ~~~~~~
 
 |-------------------------------------------------------------------|
 |-18p17-18--17p15\13-12-15p13p12----12-15fb----13----13-15fb----13--|
 |--------------------------------14---------------14----------------|
 |-------------------------------------------------------------------|
 |-------------------------------------------------------------------|
 |-------------------------------------------------------------------|

~~~~~~~~~~
 
 |-20fb-------r----|
 |-----------------|
 |-----------------|
 |-----------------|
 |-------------x\--|
 |-------------x\--|

Guitar 1
 
 [-------------------------------------------------------------------|
 [-------------------------------------------------------------------|
 [-------------------------------------------------------------------|
 [-7---------------------------2-2-------------5-5-5-5---------------|
 [-5---------------------------0-0-------------3-3-3-3---------------|
 [-------------------------------------------------------------------|

[Guitar 2
[ pull up on trem ~~~~~~~~~~~~~~~~~~~~~~~~~~
 
 [-------------------------------------------------------------------|
 [--------------------------------------------------------------8fb--|
 [-0--------------\-trem dive-/7-------------------------------------|
 [--------------------------------------------/7--------dive---------|
 [-------------------------------------------------------------------|
 [-------------------------------------------------------------------|

Guitar 1
 
 [-------------------------------------------------------------------|
 [-------------------------------------------------------------------|
 [-------------------------------------------------------------------|
 [-2--------(2)------\4----------------------------------------------|
 [-0--------(0)------\2----------------------------------------------|
 [-------------------------------------------------------------------|

[Guitar 2
[ t h h t h t
 
 [------------------------15p10-13-15p13p12--------------------------|
 [-(8fb)------15p10-12-13-------------------13-12-13p12-10-12p10-----|
 [---------------------------------------------------------------12--|
 [-------------------------------------------------------------------|
 [-------------------------------------------------------------------|
 [-------------------------------------------------------------------|

Guitar 1
 
 [-------------------------------------------------------------------|
 [-------------------------------------------------------------------|
 [-------------------------------------------------------------------|
 [------------2-2---------------------------------------3-3-3-3------|
 [------------0-0---------------------------------------1-1-1-1------|
 [-------------------------------------------------------------------|

[Guitar 2
[ h h t t t t t t t t ~~~~~~~~~~~
 
 [-------------------------------------------------------------------|
 [-------------------------------------------------------------------|
 [-------------------------------------------------------------------|
 [-10p9-10p9-----12p7-12p5-12p3-12p2-12p3-12p-5-12p7-12p8------------|
 [-----------12------------------------------------------------------|
 [-------------------------------------------------------------------|

Guitar 1
 
 [---------------|
 [---------------|
 [---------------|
 [-3----3----3---|
 [-1----1----1---|
 [---------------|

[Guitar 2
 
 [---------------|
 [---------/11---|
 [-7---10--------|
 [---------------|
 [---------------|
 [---------------|

[D]  
 
 |---------------------------------------|
 |-10----------10-------------------10---|
 |-----10----------10------10----10------|
 |--------12----------12------12---------|
 |---------------------------------------|
 |---------------------------------------|

[C]  
 
 |---------------------------------------|
 |-8--------8---------------8------------|
 |----9--------9-----9----9--------------|
 |------10-------10----10----------------|
 |---------------------------------------|
 |---------------------------------------|

[B] [A#] ~~~~~~~~~~~~~
 
 |----------12-12b---r10-12br10--------------------------|
 |-------10---------------------10-10b---10b-----------\-|
 |----10-------------------------------------------------|
 |-9-----------------------------------------------------|
 |-------------------------------------------------------|
 |-------------------------------------------------------|

Acoustic guitar(let notes ring out)
 
 |-------------------------------------------------0-------|
 |---------0-------------0-------------0-------------3-----|
 |---0---3---3-----0---3---3-----0---3---3-----0-------0---|
 |-----2-------2-----2-------2-----2-------2-----2-------2-|
 |-0-------------------------------------------------------|
 |---------------3-------------1-------------3-------------| Rpt 3 X
 |-------------------------------------------|
 |---------0-------------0-------------0-----|
 |---0---3---3-----0---3---3-----0---3---3---|
 |-----2-------2-----2-------2-----2-------2-|
 |-0-----------------------------------------|
 |---------------3-------------1-------------|

Distorted guitar
 
 |-----------------|
 |-----------------|
 |-----------------|
 |-5--(3)--4--(4)--|
 |-3--(3)--2--(2)--|
 |-----------------|

Rpt Chorus
[-PM-] [PM] PM [-PM-] [PM] PM
 
 |----------------------------------------------------------|
 |----------------------------------------------------------|
 |-7-------7---7-----7---7---7-5-------5---5-----5---5---5--|
 |-7-------7---7-----7---7---7-5-------5---5-----5---5---5--|
 |-5-5-5-5-5-x-5-5-5-5-5-5-x-5-3-3-3-3-3-x-3-3-3-3-3-3-x-3--|
 |----------------------------------------------------------|

[-PM-] [PM] PM [PM] [PM] [PM] [PM]
 
 |----------------------------------------------------------|
 |----------------------------------------------------------|
 |-4-------4---4-----4---4---4-3-----3-----3-----3-----3-3--|
 |-4-------4---4-----4---4---4-3-----3-----3-----3----------|
 |-2-2-2-2-2-x-2-2-2-2-2-2-x-2-1-1p0-1-1p0-1-1p0-1-1p0-1-1--|
 |----------------------------------------------------------|

Rpt above 3 X
Guitar 1 Acoustic(let notes ring out)
 
 [-------------0-----------------0-----------------0-----------------0----|
 [-----------4---4-------------4---4-------------4---4-------------4---4--|
 [---2---2---------2---2---2---------2---2---2---------2---2---2---------2|
 [-0---0---0--------------------------------------------------------------|
 [-------------------3---3---3---------2---2---2---------1---1---1--------|
 [------------------------------------------------------------------------|

[Guitar 2
 
 [------------------------------------------------------------------------|
 [------------------------------------------------------------------------|
 [------------------------------------------------------------------------|
 [-7--------------------(7)-----------------------------------------------|
 [-5--------------------(5)-----------------------------------------------|
 [------------------------------------------------------------------------|
 |-------------0-----------------0-----------------0-----------------0----|
 |-----------4---4-------------4---4-------------4---4-------------4---4--|
 |---2---2---------2---2---2---------2---2---2---------2---2---2---------2|
 |-0---0---0--------------------------------------------------------------|
 |-------------------3---3---3---------2---2---2---------1---1---1--------|
 |------------------------------------------------------------------------|
 |---------------------|
 |---3-----(3)---------|
 |--2------(2)---------|
 |-0-------(0)---------|
 |---------------------|
 |---------------------|

END

Important: The song above is NOT stored on the Chordie server. The original song is hosted at www.guitaretab.com. Chordie works as a search engine and provides on-the-fly formatting. Chordie does not index songs against artists'/composers' will. To remove this song please click here.

Text color:
Chord color:
Chord grids: 
Font size:    
Page size: 

A A# B C D F G G#
Rate #1 of 1 versions

Jango Player

Login - add to songbook

SHARE PAGE  




You need to log in to post comments