Guitar Tabs, Chords and Lyrics
Server problems seems to be fixed. Chordie has been experiencing problems with songs disappearing. These issues now seems to be fixed, but still verifying the fix. If you find anything strange, please email admin@chordie.com.


Waiting for the Moon  Rage

Band: Rage
Album: Reflections of a Shadow
Song: Waiting For The Moon
Copyright (c) (Noise) (1990)
Version 1.0 - (26/05/06)
Transcribed By: Steve
Email: stephen.elvidge1@ntlworld.com
. - palm mute / - slide up to
\ - slide down to ~ - vibrato
h - hammer on b - Bend
p - pull off Suffixes for bend
t - tap f - full bend h - half bend
ph - pinched harmonic q - quarter bend t - tap bend
p - pre bend
* - see comment ^ - Hold bend r release bend
x - Stuccatto ~ - vibrato bend
, - slight palm mute () - ghost note, sustained note
" - tremolo note - harmonic
Tuning E A D G B E
Intro
PM PM PM
 
 |-----------------------------------|
 |----------------------------4-4/6--|
 |----------------------------3-3/5--|
 |----------------------------1-1/3--|
 |-1-----------------1---------------|
 |---3-3-33-1-3-3-33---3-3-33--------|

PM PM
 
 |-------------------------------------|
 |-------------------------3-4-4-------|
 |-------------------------3-3-3-------|
 |-------------------------1-1-1-3-2-1-|
 |-1-----------------1-----------------|
 |---3-3-33-1-3-3-33---3-3-------------|

Main Riff
PM PM PM
 
 |-----------------------------------|
 |----------------------------4-4/6--|
 |----------------------------3-3/5--|
 |----------------------------1-1/3--|
 |-1-----------------1---------------|
 |---3-3-33-1-3-3-33---3-3-33--------| Rpt 4 X

Verse
PM PM PM
 
 |-----------------------------------------------------------------|
 |-----------------------------------------------------------------|
 |-----------------------------------------------------------------|
 |----------5--5------------------------3/5-5-5--------------------|
 |----------3--3------------3-3-3/5-5-5\1/3-3-3\1---1--------3-3-3-|
 |-1-3-3-33------x-1-3-3-11-1-1-1/3-3-3\----------1---3-3-33-1-1-1-| 

PM PM PM
 
 |---------------------------------------------------|
 |---------------------------------------------------|
 |---------------------------------------------------|
 |---------3/5-5-5-3---------------------------------|
 |---5-5---1/3-3-3-1----3-3-3----------1-3-3--1------|
 |-1-3-3-33----------33-1-1-1-1-3-3-33----------3-3--|

Bridge
pick scrape
 
 |-------------------------------------|
 |-------------------------------------|
 |-------------------------------------|
 |---------------3---(3)---------------|
 |-3---\-\-------1---(1)---3---(3)-----|
 |-1----\-\------1---(1)---5---(5)-----|

PM PM PM PM
 
 |-------------------------------------|
 |-------------------------------------|
 |-------------------------------------|
 |-------------------------------------|
 |-------------------------------------|
 |-1-3-3-33-1-3-3-33-1-3-3-33-1-3-3-33-|
 |-----------------------|
 |-----------------------|
 |-----------------------|
 |-3---(3)---------------|
 |-1---(1)---3---(3)-----|
 |-1---(1)---5---(5)-----|

Chorus
PM [-PM-] [PM] PM ~~~~~ PM ph~~
 
 |------------------------------------------------------|
 |------------------------------------------------------|
 |-------/3--2-----------------5--5--5-\3-3-------------|
 |-5--5--/3--3-------3-----3---5--5--5-\3-3--------3----|
 |-5--5--------------3-----3---3------------11-3-3------|
 |-3--3-3------1-1-1---111---1-----------------1-1------|

PM [-PM-] [PM] PM ~~~~~ ph
 
 |------------------------------------------------------|
 |------------------------------------------------------|
 |-------/3--2-----------------5--5--5-5-5b-5-3-2-0-----|
 |-5--5--/3--3-------3-----3---5--5--5--------------3---|
 |-5--5--------------3-----3---3------------------------|
 |-3--3-\------1-1-1---111---1--------------------------|

PM [-PM-] [PM] PM ~~~~~ PM ph~~
 
 |------------------------------------------------------|
 |------------------------------------------------------|
 |-------/3--2-----------------5--5--5-\3-3--------3----|
 |-5--5--/3--3-------3-----3---5--5--5-\3-3-------------|
 |-5--5--------------3-----3---3------------11-3-3------|
 |-3--3-3------1-1-1---111---1-----------------1-1------|

Guitar 1
PM [-PM-] [PM] PM ~~~~~
 
 [------------------------------------------------------|
 [------------------------------------------------------|
 [-------/3--2-----------------5--5--5-8-8-8-10-10-10---|
 [-5--5--/3--3-------3-----3---5--5--5-8-8-8-10-10-10---|
 [-5--5--------------3-----3---3-------6-6-6-8--8--8----|
 [-3--3-3------1-1-1---111---1--------------------------|

[Guitar 1
 
 [------------------------------------------------------|
 [-------------------------------------------13-13-13---|
 [-------------------------------------------15b15b15b--|
 [------------------------------------------------------|
 [------------------------------------------------------|
 [------------------------------------------------------|

Rpt Main Riff 4 X
2nd Verse
PM PM PM
 
 |----------------------------------|
 |----------------------------------|
 |----------------------------------|
 |----------------------------------|
 |----------1/3-3-33-1--------3-3-3-|
 |-1-3-3-33------------3-3-33-1-1-1-|

PM ph PM
 
 |----------------------------------|
 |----------------------------------|
 |----------------------------------|
 |----------------------------------|
 |----------1/3--3--1---------3-3-3-|
 |-1-3-3-33------------3-3-33-1-1-1-|

Rpt above
Rpt Bridge
PM PM PM
 
 |-----------------------------------|
 |-----------------------------------|
 |-----------------------------------|
 |----------------------------3-5-5--|
 |-----------------------------------|
 |-1-3-3-33-1-3-3-33-1-3-3-33--------|

Rpt Chorus
PM PM PM
 
 |--------------------------------------------------|
 |--------------------------------------------------|
 |--------------------------------------------------|
 |--------------------------------------------------|
 |-0p1-------------1p0-----1p0-----------------1p0--|
 |-----3p0-1p0-3p0-----3p0-----3p0-1p0-3p0-1p0------|

PM PM
 
 |-------------------------------------------------------|
 |-------------------------------------------------------|
 |-------------------------------------------------------|
 |--------------------------------------------------\-\--|
 |-----1p0---0------------1p0---0-1p0---0------------\-\-|
 |-3p0-----3---00-1p0-3p0-----3-------3---00-1p0-3p0-----|

Backing for guitar solo
PM PM PM
 
 |--------------------------------------|
 |--------------------------------------|
 |--------------------------------------|
 |--------------------------------------|
 |-3/5-5----3/5-5----3/5-5----3--2--3---|
 |-1/3-3-33-1/3-3-33-1/3-3-33-1--0--1---| Rpt 4 X

PM PM PM
 
 |--------------------------------------|
 |--------------------------------------|
 |--------------------------------------|
 |--------------------------------------|
 |-5/7-7----5/7-7----5/7-7----5-\4-/5---|
 |-3/5-5-55-3/5-5-55-3/5-5-55-3-\2-/3---| Rpt 2 X

PM PM PM
 
 |--------------------------------------|
 |--------------------------------------|
 |--------------------------------------|
 |--------------------------------------|
 |-3/5-5----3/5-5--3--3/5-5----3--2--3--|
 |-1/3-3-11-1/3-3--1--1/3-3-11-1--0--1--| Rpt 2 X

Guitar solo
[G]  
 
 [-PM-] ~~~[---PM--] h h
 |---------------------------------------------------------------|
 |---------------------------------------12\---------------------|
 |-----------------5-------------14b-14b-12\---------------------|
 |-5--3---3-5-/7p5----55-3---3-----------------------------------|
 |------5------------------5---3-------------------3-3-3-5p3-5p3-|
 |-------------------------------------------0-1-3---------------|
 |-------------------------------------------------------|
 |---------------------------8----------------8----------|
 |---------3---5-p3--------7---6-5----------7---6-5------|
 |-3-5p3-5---5------5-8-10---------8-7-8-10---------8-7--|
 |-------------------------------------------------------|
 |-------------------------------------------------------|

ph~~~~~ ~~~~~~~~~~~~~
 
 |--------------------------------------------|
 |------------------------------13b-----------|
 |---5-6p5-----------7br------0---------------|
 |-8-------8-5--------------------------------|
 |-------------5-4-3--------------------------|
 |-------------------------\3-----------------|

[A] ~~~~~~~~~~~~ t h h ~~~ ph~~~~~~~~
 
 |-----------------12p8-10p8\7-8p7\5-7p5-----------------------|
 |-/8b-----------8-----------------------5---------------------|
 |-------------------------------------------7-5-5\4-5---------|
 |-------------------------------------------------------------|
 |-------------------------------------------------------------|
 |-------------------------------------------------------------|

~~~~~~~~~~~~~~~~~~ ~~~~~
 
 |---------------------15-fb-----\----13-18-17-18-15-13-------------|
 |-8------------------/------------15-------------------16-15-16p15-|
 |-7b---------------------------------------------------------------|
 |------------------------------------------------------------------|
 |------------------------------------------------------------------|
 |------------------------------------------------------------------|

[G]~~~~~~~~~~
 
 |---------------------------------------------------------------------|
 |-13----11-10----10-11---------11----11--------------11---------------|
 |----15-------12------------------12----11-12-10--10b-----------------|
 |-------------------------------------------------------12-11-10b10-\-|
 |---------------------------------------------------------------------|
 |---------------------------------------------------------------------|

[D#]With wah[F]
~~~~~~~~~~ ~~~~~~~~~
 
 |------------------------------------------|
 |-6fbr6---6-6fb--------8fbr6-8-8fb---------|
 |-------8----------------------------------|
 |------------------------------------------|
 |------------------------------------------|
 |------------------------------------------|
 |-----------------------------------------------------------|
 |-13-15p13----13--------------------------------------------|
 |----------15----15-14-12-7-8p7------------5p3--------------|
 |-------------------------------10-8-7---------5p3----------|
 |--------------------------------------6-8---------5/6---/--|
 |--------------------------------------6-8------------------|

[D#]With wah[F]
~~~~~~~~~~ ~~~~~~~~~
 
 |------------------------------------------|
 |-6fbr6---6-6fb--------8fbr6-8-8fb---------|
 |-------8----------------------------------|
 |------------------------------------------|
 |------------------------------------------|
 |------------------------------------------|

PM
 
 |------------------------------------------------------------|
 |------------------------------------------------------------|
 |------------------------------------------------------------|
 |------------------------------------------------------------|
 |---------1p0-----1p0-----------0-----1p0-----1p0------------|
 |-1p0-3p0-----3p0-----3p0-1p0-3---3p0-----3p0-----3p0-3-1p0--|
 |--------------------------------------|
 |--------------------------------------|
 |-----------------0--------------------|
 |-----------------0-----trem dive------|
 |---0-----1p0--------------------------|
 |-3---3p0-----3p0----------------------|

Rpt Verse
Rpt Bridge
Guitar 1
PM PM PM ~~~~
 
 [-------------------------------------|
 [-------------------6-8-8-88-6-8-8----|
 [-------------------------------------|
 [----------3-5-5-55-------------------|
 [-------------------------------------|
 [-1-3-3-33----------------------------|

[Guitar 2
[ PM PM PM PM
 
 [-------------------------------------|
 |-------------------------------------|
 |-------------------------------------|
 |-------------------------------------|
 [-------------------------------------|
 [-1-3-3-33-1-3-3-33-1-3-3-33-1-3-3-33-|
 [-------PM------]
 |-------------------------------------------------------------|
 |-------------------------------------------------------------|
 |-------------------------------------------------------------|
 |-3---(3)-------------5---(5)---3---(3)---3-3-3-3-3-3-3-3-3\--|
 |-1---(1)---3---(3)---6---(6)---5---(5)---5-5-5-5-5-5-5-5-5\--|
 |-1---(1)---5---(5)-------------------------------------------|
 |--------|
 |--------|
 |--------|
 |--------|

|-8-\7-\-|
|-6-\5-\-|
Rpt Chorus 2 X
Rpt Main Riff 3 X with additional guitar below.
 
 |----------------------------------6--------------|
 |----------4-4/6---------------------8-8-88-4-4/6-|
 |-3--------3-3/5-3--------------------------3-3/5-|
 |---5-5-55-1-1/3---5-5-55-3-5-5-55----------1-1/3-|
 |-------------------------------------------------|
 |-------------------------------------------------|
 |-6-----------------6----------------|
 |---8-8-88-6-8-8-88---8-8-88-4-4/6---|
 |------------------------------------|
 |------------------------------------|
 |------------------------------------|
 |------------------------------------|

END

Important: The song above is NOT stored on the Chordie server. The original song is hosted at www.guitaretab.com. Chordie works as a search engine and provides on-the-fly formatting. Chordie does not index songs against artists'/composers' will. To remove this song please click here.

Text color:
Chord color:
Chord grids: 
Font size:    
Page size: 

A D# F G
Rate #1 of 1 versions

Login - add to songbook

SHARE PAGE  




You need to log in to post comments