Guitar Tabs, Chords and Lyrics
Login is temporarily disabled for some users. Do not panic. Will be back in an hour or two. DO NOT REREGISTER!!


From the Underworld   Rage

 
 ||---------------------------|-------------------------------||
 T||---------------------------|-------------------------------||
 A||*--------------------------|------------------------------*||
 B||*-1------------------------|-1----------------------------*||
 ||--1------------4---6---7---|-1-----------------------------||
 ||--000000000000-3---5---6---|-000000000000-5-6-5-3-3-5-3-2--||

 


 


 (Strophe)


 [+] [+]  

 
 |-------------------|-------------------|
 T|-------------------|-------------------|
 A|-6-6---------------|-6-6---------------|
 B|-6-6---------------|-6-6---------------|
 |-4-4---4---6---7---|-4-4---4---6---7---|
 |-------3---5---6---|-------3---5---6---|

 


 


 2 x Riff I


 


 Stophe


 


 2 x Riff I


 


 (Prechorus)


 

 
 |-----------|-----------|-----------|---------|
 T|-----------|-----------|-----------|---------|
 A|-----------|-----------|-----3-(3)-|---------|
 B|-----6-(6)-|-----3-(3)-|-----3-(3)-|-1-------|
 |-6---4-(4)-|-4---2-(2)-|-6---1-(1)-|-1-------|
 |-5---------|-3---------|-5---------|-0-------|
 |-----------|-----------|-----------|---------|
 T|-----------|-----------|-----------|---------|
 A|-----------|-----------|-----3-----|---------|
 B|-----6-----|-----3-----|-----3-----|-1-------|
 |-6---4-----|-4---2-----|-6---1-----|-1-------|
 |-5---------|-3---------|-5---------|-0-------|

 


 


 (Chorus) + +


 

 
 ||------------------|----------------------||
 T||------------------|----------------------||
 A||*-----------------|---------------------*||
 B||*-8---6-----------|-8-------8-6---------*||
 ||--6---4---4---6---|-6---9-8-6-4-4---6----||
 ||----------3---5---|-------------3---5----||


Important: The song above is NOT stored on the Chordie server. The original song is hosted at www.guitaretab.com. Chordie works as a search engine and provides on-the-fly formatting. Chordie does not index songs against artists'/composers' will. To remove this song please click here.

This song is displayed as text-only. Transposing and tuning is only available for chordpro-songs.
Rate #1 of 2 versions

Login - add to songbook

SHARE PAGE  




You need to log in to post comments