Guitar Tabs, Chords and Lyrics
Login is temporarily disabled for some users. Do not panic. Will be back in an hour or two. DO NOT REREGISTER!!


Reflections of a Shadow  Rage

Band: Rage
Album: Reflections of a Shadow
Song: Reflections of a Shadow
Copyright (c) (Noise) (1990)
Version 1.0 - (18/05/06)
Transcribed By: Steve
Email: stephen.elvidge1@ntlworld.com
. - palm mute / - slide up to
\ - slide down to ~ - vibrato
h - hammer on b - Bend
p - pull off Suffixes for bend
t - tap f - full bend h - half bend
ph - pinched harmonic q - quarter bend t - tap bend
p - pre bend
* - see comment ^ - Hold bend r release bend
x - Stuccatto ~ - vibrato bend
, - slight palm mute () - ghost note, sustained note
" - tremolo note - harmonic
Tuning E A D G B E
Guitar 1
ph
 
 [-------------------------------------------------|
 [-------------------------------------------------|
 [----2--4-/5\4-2--4p2-4p2-4-----------------------|
 [-4--2--4-/5\4-2------------4p2-3p2---------------|
 [-4---------------------------------4p2-4p2-3p2-0-|
 [-------------------------------------------------|

[Guitar 2
 
 [-------------------------------------------------|
 [-------------------------------------------------|
 [-------------------------------------------------|
 [-------------------------------------------------|
 [-4-----------------------------------------------|
 [-2-----------------------------------------------|

Guitar 1
 
 [-------------------------------------------------|
 [-------------------------------------------------|
 [------1--3-/4\3-1--3p1---------------------------|
 [---3--1--3-/4\3-1------3p1-3p1-2p1---------------|
 [---3-------------------------------3p1-3p1-2p1---|
 [-----------------------------------------------4-|

[Guitar 2
 
 [-------------------------------------------------|
 [-------------------------------------------------|
 [-------------------------------------------------|
 [-------------------------------------------------|
 [-2-3---------------------------------------------|
 [-0-1---------------------------------------------|

Guitar 1
h h h h h h
 
 [-----------------------------------------------------|
 [-----------------------------------------------------|
 [----2--4-/5\4-2--6p4-------6p4-----------------------|
 [-4--2--4-/5\4-2------7p6-------7p6---6p4-----6p4-----|
 [-4-----------------------7---------7-----7-6-----7-6-|
 [-----------------------------------------------------|

[Guitar 2
 
 [-----------------------------------------------------|
 [-----------------------------------------------------|
 [-----------------------------------------------------|
 [-----------------------------------------------------|
 [-4---------------------------------------------------|
 [-2---------------------------------------------------|

Guitar 1 ph ph
 
 [------------------------------------|
 [------------------------------------|
 [----1--3-/4\3-1----9b-9b-trem dive--|
 [-3--1--3-/4\3-1---------------------|
 [-3----------------------------------|
 [------------------------------------|

[Guitar 2
 
 [------------------------------------|
 [------------------------------------|
 [------------------------------------|
 [------------------------------------|
 [-3--6-------------------------------|
 [-1--4-------------------------------|

Main Riff
h [--PM-] ~~~
 
 |-------------------------------------|
 |--------------------------------4br--|
 |----2--4-/5\4-2-------------2---4br--|
 |-4--2--4-/5\4-2-2-4---------2--------|
 |-4--------------2-4-4-4-4-4---x------|
 |-------------------------------------|

phph ph
 
 |-------------------------------------------------|
 |-----------------------------------6p4---5-------|
 |----1--3-/4\3-1----------0-1p0---------5---------|
 |-3--1--3-/4\3-1--3p1-3p1-------3p1---------0-3p0-|
 |-3-----------------------------------------------|
 |-------------------------------------------------|
 [-----------light PM----------]
 |---------------------------5----------------------|
 |---------------------7-5-----7-5-7-5p2-4----------|
 |----2--4-/5\4-2--4/6-----6---------------2-44-2---|
 |-4--2--4-/5\4-2---------------------------------2-|
 |-4------------------------------------------------|
 |--------------------------------------------------|
 |------------------------------------------|
 |----------------------trem dive--------|
 |----1--3-/4\3-1---------------------------|
 |-3--1--3-/4\3-1-3-------------------------|
 |-3--------------3-------------------------|
 |------------------------------------------|

Verse
[--PM--] [PM] ph~~ [PM] [PM-] [PM]
 
 |-----------------------------------------------------------------------|
 |-----------------------------------------------------------------------|
 |----2--4-/5\4-2----------------------1--3-/4\3-1-----------------------|
 |-4--2--4-/5\4-2-2-4-----4-----4---3--1--3-/4\3-1-1-3-----3-------3-----|
 |-4--------------2-4-4-4-4-2-4-----3--------------1-3-3-3-3-3-3-3-3-3-3-|
 |-----------------------------------------------------------------------|

Rpt
Bridge
PM PM
 
 |--------------------------------|
 |-------------3-----3---(3)------|
 |-------------2-----2---(2)------|
 |-4--4--4--4--0--00-----(0)------|
 |-4--4--4--4---------------------|
 |-2--2--2--2------------------00-| Rpt 3 X
 |------------------------------|
 |------------------------------|
 |-9-9--9-9--9--9---------------|
 |-9-9--9-9--9--9---------------|
 |-7-7--7-7--7--7-----------12\-|
 |--------------------------12\-|

Chorus
PM ph
 
 |-------------------------------|
 |-------------------------------|
 |-------------------------------|
 |-4-----4--2------------------2-|
 |-2---2-2--0-5--(5)--------5--0-|
 |------------3--(3)--0-3-2------|

h PM ph
 
 |-------------------------------|
 |-------------------------------|
 |-------------------------------|
 |-4-4---4--2------------------2-|
 |-2-2-2-2--0-5--(5)--------5--0-|
 |------------3--(3)--0-3-2------|

Guitar 1
 
 h PM [PM] [PM-] [--PM--] [--PM--] [--PM--] [--PM--]
 [---------------------------------------------------------------------|
 [---------------------------------------------------------------------|
 [---------------------------------------------------------------------|
 [-4-4---4--2------------------3---------3---------3---------3---------|
 [-2-2-2-2--0-5--5-----5-------1-1-1-1-1-1-1-1-1-1-1-1-1-1-1-1-1-1-1-1-|
 [------------3--3-3-3-3-3-3-3-----------------------------------------|

[Guitar 2
[ trem vibrato dive
 
 [---------------------------------------------------------------------|
 [---------------------------------------------------------------------|
 [------------------------------------------------3p0-4p0-5p0-5p0-\----|
 [---------------------------------------------------------------------|
 [---------------------------------------------------------------------|
 [---------------------------------------------------------------------|

h h h h h
 
 |-----------------0-------------------------|
 |-------------------2p1-2-x-----------------|
 |----2--4-/5\4-2------------5p2---2---------|
 |-4--2--4-/5\4-2----------------4---4p2-----|
 |-4-------------------------------------4p0-|
 |-------------------------------------------|
 h [-------------PM---------------]
 |----------------------------------------------------|
 |----------------------------------------------------|
 |----1--3-/4\3-1-------------------------------------|
 |-3--1--3-/4\3-1-1-3-----------------3-3-3-3-3-3-3-3-|
 |-3--------------1-3-3-3-3-3-3-3-3-3-----------------|
 |----------------------------------------------------|

2nd Verse
[--PM--] [PM] ph~~ [PM] [PM-] [PM]
 
 |-----------------------------------------------------------------------|
 |-----------------------------------------------------------------------|
 |----2--4-/5\4-2----------------------1--3-/4\3-1-----------------------|
 |-4--2--4-/5\4-2-2-4-----4---------3--1--3-/4\3-1-1-3-----3-------3-----|
 |-4--------------2-4-4-4-4-2-4-4---3--------------1-3-3-3-3-3-3-3-3-3-3-|
 |-----------------------------------------------------------------------|

[--PM--] [PM] ph~~ [PM] [PM-] [PM]
 
 |-----------------------------------------------------------------------|
 |-----------------------------------------------------------------------|
 |----2--4-/5\4-2----------------------1--3-/4\3-1-----------------------|
 |-4--2--4-/5\4-2-2-4-----4-----4---3--1--3-/4\3-1-1-3-----3-------3-----|
 |-4--------------2-4-4-4-4-2-4-----3--------------1-3-3-3-3-3-3-3-3-3-3-|
 |-----------------------------------------------------------------------|

Rpt Bridge
Rpt Chorus 2 X with fill
trem~~~~~~ dive
 
 |-------------------|
 |-------------------|
 |---------0-\----|
 |-------------------|
 |-------------------|
 |-------------------|

Guitar 1
 
 [-PM-] [-PM-] PM [-PM-]
 [------------------------------------------------|
 [------------------------------------------------|
 [------------------------------------------------|
 [------------------------------------------------|
 [-4------4------4-5----4------4p2p0--------------|
 [-2-2222---2222-----22---2222-------5p0-4p0-5p0--|

[Guitar 2
 
 [------------------------------------------------|
 [------------------------------------------------|
 [------------------------------------------------|
 [------------------------------------------------|
 [-4----------------------------------------------|
 [-2----------------------------------------------| Rpt

Backing for solos
[-PM-] [-PM-] [PM] [PM] 
 
 |---------------------------|
 |---------------------------|
 |---------------------------|
 |-9------9------9----9----9-|
 |-7------7------7----7----7-|
 |---0000---0000---00---00---|

[-PM-] [-PM-] [PM] [PM] 
 
 |---------------------------|
 |---------------------------|
 |---------------------------|
 |---------------------------|
 |-6------6------6----6----6-|
 |-4-4444-4-4444-4-44-4-44-4-|

Rpt above
1st Guitar solo
[G#] ~~~~~~t~~~~~~ ~~~ ~~~~~~
 
 |------------------------------------------------|
 |------------------------------------------------|
 |-1-----13-----\-7-8-9-8-7-8-7-6-----------------|
 |--------------------------------9-8-8b---r6-----|
 |------------------------------------------------|
 |------------------------------------------------|

~~~~~
 
 |------------------------------------|
 |------------------------------------|
 |-9-11-12-11-9-8----8----------------|
 |----------------11---9-8-6-8-6------|
 |-------------------------------7----|
 |------------------------------------|

2nd Guitar solo
[G#] ~~~~~~~~~~~~~~~~~~~~~~~~
 
 |-----------------------------------------------------------|
 |-19fb-r19fb19fb19fb-22fb--r-----------19-21-19\17\16-------|
 |---------------------------20---21-20----------------18-16-|
 |-----------------------------------------------------------|
 |-----------------------------------------------------------|
 |-----------------------------------------------------------|

~~~~~~
 
 |--------------------------|
 |-16-----------------------|
 |----18-16\15\13-----------|
 |----------------13-----\--|
 |--------------------------|
 |--------------------------|

Guitar 1
 
 [---------------------------------------------------------------------|
 [---------------------------------------------------------------------|
 [---------------------------------------------------------------------|
 [---7----7----7----(7)-----7------7-----7-------------(7)-------------|
 [-5-5----5----5----(5)-----5------5-----5-------------(5)-------------|
 [-5-------------------------------------------------------------------|

[Guitar 2
 
 [------------------------------------------------13----------12-13-12-|
 [--------------------------------1313---------10----15-13-15----------|
 [------------------------------14----14---9-10------------------------|
 [-------------------12p10-12-15--------12-----------------------------|
 [----------------12---------------------------------------------------|
 [----------10-13------------------------------------------------------|

Guitar 1
 
 [-------------------------------------------------------------------|
 [-------------------------------------------------------------------|
 [-------------------------------------------------------------------|
 [-------7-------------------------(7)------------------\------------|
 [-------5-------------------------(5)------------------\------------|
 [-------------------------------------------------------------------|

[Guitar 2
[ h h h h h h ~~~~~~~~~~~~
 
 [-15-13-17p13-15p13p12-13p12p10------13-17p13-15p12-13-19fb---------|
 [-------------------------------8-10--------------------------------|
 [-------------------------------------------------------------------|
 [-------------------------------------------------------------------|
 [-------------------------------------------------------------------|
 [-------------------------------------------------------------------|

Rpt Bridge with fill
Trem Dive
 
 |----------|
 |----------|
 |----------|
 |----------|
 |----------|
 |-0/-\-----|

Rpt Chorus 2 X
[PM] [--PM--] ph
 
 |------------------------------------------|
 |------------------------------------------|
 |------------------------------------------|
 |-----4-----------4--2-------------------2-|
 |-2-2-2-2-2-2-2-2-2--0--5--(5)--------5--0-|
 |-----------------------3--(3)--0-3-2------| Rpt 2 X

[PM] [--PM--] 
 
 |-----------------------|
 |-----------------------|
 |-----------------------|
 |-----4-----------4--2--|
 |-2-2-2-2-2-2-2-2-2--0--|
 |-----------------------|

Guitar 1
 
 [PM] [PM-] [--PM--] [--PM--] [--PM--] [--PM--]
 [----------------------------------------------------------|
 [----------------------------------------------------------|
 [----------------------------------------------------------|
 [------------------3---------3---------3---------3---------|
 [-5--5-----5-------1-1-1-1-1-1-1-1-1-1-1-1-1-1-1-1-1-1-1-1-|
 [-3--3-3-3-3-3-3-3-----------------------------------------|

[Guitar 2
[ ~~~~~~~~~~~~~~~ ~~~~~~~~~~~
 
 [----------------------------------13-14-16p12-16fb--------|
 [----------------------------------------------------------|
 [------------------14b--14br-14br--------------------------|
 [----------------------------------------------------------|
 [----------------------------------------------------------|
 [----------------------------------------------------------|

Outro solo
~~~~~~~~~
 
 |----------------12-----------------------|
 |-14p12----12/14----15-14-b--14b----------|
 |-------14--------------------------------|
 |-------------------------------------x\--|
 |-------------------------------------x\--|
 |-------------------------------------x\--|

Guitar 1
 
 [----------------------10---------------------|
 [-14-b---r14-12-----12----12--10--------------|
 [---------------14---------------12-11-9-7\6\-|
 [---------------------------------------------|
 [---------------------------------------------|
 [---------------------------------------------|

[Guitar 2 ~~~~
 
 [--------------17b----------------------------|
 [---------------------------------------------|
 [---------------------------------------------|
 [---------------------------------------------|
 [---------------------------------------------|
 [---------------------------------------------|

Guitar 1
 
 [------------------------------------|
 [------------------------------------|
 [------------------------------------|
 [-3----------(3)---------------\-----|
 [-1----------(1)---------------\-----|
 [------------------------------------|

[Guitar 2
 
 [------------------------------------|
 [------------------------------------|
 [------------------------------------|
 [---------8-trem vibrato-----dive----|
 [------------------------------------|
 [------------------------------------|

END

Important: The song above is NOT stored on the Chordie server. The original song is hosted at www.guitaretab.com. Chordie works as a search engine and provides on-the-fly formatting. Chordie does not index songs against artists'/composers' will. To remove this song please click here.

Text color:
Chord color:
Chord grids: 
Font size:    
Page size: 

G#
Rate #1 of 1 versions

Login - add to songbook

SHARE PAGE  



You need to log in to post comments