Guitar Tabs, Chords and Lyrics
Update 25:10. 13:00. Site is back up running again. Songbooks are recovered. Woring on getting search back up..


I Surrender  Rainbow

I SURRENDER
As recorded by Rainbow
(From the 1982 Album DIFFICULT TO CURE)
Words and Music by Russ Ballard
Gtr I (E A D G B E) - 'Untitled'
Intro
[Gm] [Eb/G] [C/G] [Gm] [Eb/G] [C/G] [C] 
Gtr I
~~~~~~~ ~~~~~~~
 
 |-3b5---6b8------|--8pb10r=======|=3b5---6b8------|-15pb17r==========||
 |-6b8---9b11-----|-11pb13r=======|=6b8---9b11-----|-20pb22r==========||
 |----------------|---------------|----------------|------------------||
 |----------------|---------------|----------------|------------5-5-7-||
 |----------------|---------------|----------------|------------3-3-5-||
 |----------------|---------------|----------------|------------------||

|
| Gtr I
| ~~~~~~~ ~~~~~~~
 
 |-3b5---3b5------|--3pb5r========|=3b5---3b5------|--3pb5r===========||
 |-6b8---6b8------|--6pb8r========|=6b8---6b8------|--6pb8r===========||
 |----------------|---------------|----------------|------------------||
 |----------------|---------------|----------------|------------------||
 |----------------|---------------|----------------|------------------||
 |----------------|---------------|----------------|------------------||

|
| Gtr I
| ~~~~~~~ ~~~~~~~
 
 |----------------|---------------|----------------|------------------||
 |-3b5---4b6------|--5pb7r========|=3b5---4b6------|--5pb7r===========||
 |-5b7---6b8------|--7pb9r========|=5b7---6b8------|--7pb9r===========||
 |----------------|---------------|----------------|------------------||
 |----------------|---------------|----------------|------------------||
 |----------------|---------------|----------------|------------------||

1st&2nd Verses
[Dm]Gtr I[F] [G] [Am] [Bb] [Am] [Gm] [C]
 
 ||---------------|--------------|------------|----------------|
 ||o--------------|--------------|------------|----------------|
 ||---------------|--------------|------------|----------------|
 ||--7\-----------|--------------|------------|----------5-5-7-|
 ||o-5\-----3-3-5-|-5--5-3-5--7--|-8----7-7---|-5-5-3-5--3-3-5-|
 ||---------1-1-3-|-3--3-1-3--5--|-6----5-5---|-3-3-1-3--------|

[Dm] [F] [G] [Am] [Bb] [Am] [Gm]  
 
 |--------------|--------------|------------|------------------|
 |--------------|--------------|------------|------------------|
 |--------------|--------------|------------|------------------|
 |-7\-----------|--------------|------------|------------------|
 |-5\-----3-3-5-|-5--5-3-5--7--|-8----7-7---|-5-5-3-5-(5)---5--|
 |--------1-1-3-|-3--3-1-3--5--|-6----5-5---|-3-3-1-3-(3)---3--|

1st&2nd Pre-Chorus
[Eb] [F] [Bb] [Eb] [Eb] [F]  
 
 PM--------|
 |--------------------||----------------|--------------|----------------|
 |--------------------||----------------|--------------|----------------|
 |--------------------||-8---10-(10)----|-----8-(8)----|-8---10-(10)----|
 |-------------x/--x\-||-8---10-(10)----|-8---8-(8)----|-8---10-(10)----|
 |-------5-5-5--------||-6----8--(8)----|-8---6-(6)----|-6----8--(8)----|
 |-3-3-3-3-3-3--------||----------------|-6------------|----------------|

[Gm] [Eb] [F] [Bb] [Eb] [A]  
 
 PM------------|
 |-----------------|----------------|--------------|---------3--------|
 |-----------------|----------------|--------------|-------4---4------|
 |-----------------|-8---10-(10)----|-----8-(8)----|-----5-------5----|
 |-----------------|-8---10-(10)----|-8---8-(8)----|---5-----------5--|
 |-5-5-5-5-5-5-5-5-|-6----8--(8)----|-8---6-(6)----|-0----------------|
 |-3-3-3-3-3-3-3-3-|----------------|-6------------|------------------|

1st,2nd&D.S. Chorus
$
[Gm/D] [D] [Gm/D] [D7] [Gm] [Eb] [F] [Dm]  
 
 |------------|--------------||---------------|--------------|
 |-8---7-7----|-8---7-7------||---------------|--------------|
 |-7---7-7----|-7---7-7------||---------------|--------------|
 |-5---7-7----|-5---7-7--x/--||------8-(8)----|------7-(7)---|
 |------------|--------------||-5-5--6-(6)----|-3-3--5-(5)---|
 |------------|--------------||-3-3-----------|-1-1----------|

[Eb] [Cm] [Gm/D] [Gm] [Eb] [F] [Dm]  
 
 PM------------|
 |----------------|-----------------|---------------|--------------|
 |----------------|-----------------|---------------|--------------|
 |----------------|-----------------|---------------|--------------|
 |-8-8--5-(5)-5---|-5-5-5-7-7-7-7-7-|------8-(8)----|-8-8--5-(5)---|
 |-6-6--3-(3)-3---|-5-5-5-5-5-5-5-5-|-5-5--6-(6)----|-6-6--3-(3)---|
 |----------------|-----------------|-3-3-----------|--------------|

1st&2nd Interlude
To Coda
[Eb] [Cm] [Gm/DD7] [Gm/DD7] [Gm]~
 
 |--------------|--------------|--------------||-----------|
 |--------------|--------------|-8---7-(7)----||---------3-|
 |--------------|--------------|-7---7-(7)----||-3-----5---|
 |-5---7-(7)----|-5---7-(7)----|-5---7-(7)----||-----------|
 |-5---5-(5)----|-5---5-(5)----|--------------||-----------|
 |--------------|--------------|--------------||-----------|

[Cm]~~~ [F]~ [Bb]~~~
 
 |----------------------|--------------|-----------------------|
 |-3b4----(3)-3-4-3-----|--------------|-----------------------|
 |------------------5-3-|-2----(2)-3-5-|-5b7----(5)-5-3-2h3p2--|
 |----------------------|--------------|-----------------------|
 |----------------------|--------------|-----------------------|
 |----------------------|--------------|-----------------------|

[Eb] [Gm/DD] [Gm]/1\[Cm]
~ ~~~~~~~~~~~~ ~~~
 
 |---------------|--------------|----------------|------------------|
 |---------------|--------------|--------------3-|-3b4----(3)-3-----|
 |---------------|--------------|-3------(3)-5---|--------------5-3-|
 |-5----(5)-7-5--|-5---4-(4)----|----------------|------------------|
 |---------------|--------------|----------------|------------------|
 |---------------|--------------|----------------|------------------|

|
| Gtr I
| /1\
| ~~~ ~~~
 
 |---------------|--------------|----------------|------------------|
 |---------------|--------------|-3------(3)-4-6-|-6b7----(6)-6-4-3-|
 |---------------|--------------|----------------|------------------|
 |---------------|--------------|----------------|------------------|
 |---------------|--------------|----------------|------------------|
 |---------------|--------------|----------------|------------------|

[F] [Bb] [Eb]/1\
~ ~~~~ ~~~
 
 |----------------|--------------------------------|-------------------|
 |----------------|--------------------------------|-------------------|
 |-2----(2)-3-5-5-|-5b7---5pb7-(5)-5b7r(5)-3-----2-|-------------------|
 |----------------|--------------------------------|-5------(5)-5S7-5--|
 |----------------|--------------------------------|-------------------|
 |----------------|--------------------------------|-------------------|

|
| ~ ~~~
 
 |----------------|--------------------------------|-------------------|
 |------------6-4-|-4b6--------(4)------4--3h4p3---|-------------------|
 |-5----(5)-5-----|------------------------------5-|-3-------3--3h5-3--|
 |----------------|--------------------------------|-------------------|
 |----------------|--------------------------------|-------------------|
 |----------------|--------------------------------|-------------------|

1. 2.
[Gm/DD] [Gm] [Eb/G] [C/G] [C] [Dsus4]  
 
 ~~~ ~~~~ ~~~~~~~ PM------------|
 |--------------|-3b5---6b8------|-15pb17r===========||==================|
 |--------------|-6b8---9b11-----|-20pb22r==========o||==================|
 |--------------|----------------|-------------------||------------------|
 |-5---4-(4)----|----------------|------------5-5-7--||-7-7-7-7-7-7-7-7--|
 |--------------|----------------|------------3-3-5-o||-5-5-5-5-5-5-5-5--|
 |--------------|----------------|-------------------||------------------|

|
| ~~~ ~~~~ ~~~~~~~
 
 |--------------|----------------|--3pb5r============||==================|
 |--------------|-3b5---4b6------|--6pb8r===========o||==================|
 |-3---2-(2)----|-5b7---6b8------|-------------------||------------------|
 |--------------|----------------|-------------------||------------------|
 |--------------|----------------|------------------o||------------------|
 |--------------|----------------|-------------------||------------------|

D.S. al Coda
[D] [Dsus4] [D]  
 
 PM------------------------------------------------|
 |-----------------|-----------------|------------------||
 |-----------------|-----------------|------------------||
 |-----------------|-7-7-7-7-7-7-7-7-|-7-7-7-7-7-7-7-7--||
 |-7-7-7-7-7-7-7-7-|-7-7-7-7-7-7-7-7-|-7-7-7-7-7-7-7-7--||
 |-5-5-5-5-5-5-5-5-|-5-5-5-5-5-5-5-5-|-5-5-5-5-5-5-5-5--||
 |-----------------|-----------------|------------------||

Outro
&
[Gm]~ ~~~ PM [Cm] ~~~~~
 
 |--------------------|------------------------|
 |--------------------|------------------------|
 |-----------5----3b5r|=3---3pb5-(3)-3-(3)-2-0-|
 |-5---5-(5)-7--5-----|------------------------|
 |--------------------|------------------------|
 |--------------------|------------------------|

[F] [Bb]  
 
 |--------------------------|---------------------|
 |-----------------1-3-3b4==|=(3)r=3p1------------|
 |-2p0-----------2----------|----------3-(3)------|
 |-----3-(3)---3------------|---------------------|
 |--------------------------|-----------------x\--|
 |--------------------------|---------------------|

[Eb] [Gm/D] [D] ~
 
 |-5-6-5h6p5-3---------|---------------|
 |-------------6b8r=6--|-6b8r=6p2-2----|
 |---------------------|---------------|
 |---------------------|---------------|
 |---------------------|---------------|
 |---------------------|---------------|

[Gm] ~[Cm]
 
 |-3--------5-6-6b8-|-(6)--6pb8-6b8==(6)r6-6-5-|
 |---6S8------------|--------------------------|
 |------------------|--------------------------|
 |------------------|--------------------------|
 |------------------|--------------------------|
 |------------------|--------------------------|

[F] [Bb] ~~~[Eb]
 
 |-6p5h6p5h6p5--------------|------------------|--------------------|
 |-------------6-(6)--------|------------------|-4b6---4-4-3h4p3----|
 |-------------------5b7====|=(5)r=5-3-(3)---3-|-----------------5--|
 |--------------------------|------------------|--------------------|
 |--------------------------|------------------|--------------------|
 |--------------------------|------------------|--------------------|

[Gm/DD] ~~~~ [Gm] [Cm] ~~
 
 |---------------|--------------------------|----------------------------|
 |---------------|-13b15-13-13-13pb15r13-11-|-11b11.5------------------6-|
 |-3---2-(2)/----|--------------------------|------------------------7---|
 |---------------|--------------------------|---------12-(12)\-----8-----|
 |---------------|--------------------------|----------------------------|
 |---------------|--------------------------|----------------------------|

[F] [Bb] ~ ~[Eb]
 
 |----------------|------------------|-11-10h11p10------------------------|
 |-8p6-6-6--------|-------6--(6)-6---|-------------13b15==(13)-(13)r13-11-|
 |---------8--7h8p|=7h8p7------------|------------------------------------|
 |----------------|------------------|------------------------------------|
 |----------------|------------------|------------------------------------|
 |----------------|------------------|------------------------------------|

[Gm/D] ~~ [D] PM---| [Gm] [Cm] ~~
 
 |---------------------------------|-15-------------------|----------------|
 |-13--11h13p11-10-(10)---------15-|----18-15-------------|----------------|
 |---------------------------15----|----------17b19r17-17-|-15-14-15-------|
 |------------------------17-------|----------------------|----------17----|
 |---------------------------------|----------------------|----------------|
 |---------------------------------|----------------------|----------------|

[F] [Bb] /1\
~~~~~~~~
 
 |-15-------------------|--------------------|
 |----18-15-------------|----15--15-(15)-----|
 |----------17b19r17-17-|-17-----------------|
 |----------------------|--------------------|
 |----------------------|--------------------|
 |----------------------|--------------------|

~[Eb]~~~~~~~~~~ [Gm/DD]~
 
 |---------------|----------------------|
 |-4---6-(6)--8--|-8---8b10==(8)r8------|
 |---------------|-----------------7p0--|
 |---------------|----------------------|
 |---------------|----------------------|
 |---------------|----------------------|

[Gm]~ [Cm] ~
 
 |---------------------|----------------/10-11-|
 |-----3--4--3-4-6-4-3-|---3-3-----------------|
 |---------------------|-5-----5-3-5-----------|
 |-5-------------------|-----------------------|
 |---------------------|-----------------------|
 |---------------------|-----------------------|

[F]  
 
 |-10-8h10p8h10-6h8-6h8p6-5-(5)-6-5h6p5---|
 |----------------------------------------|
 |----------------------------------------|
 |----------------------------------------|
 |----------------------------------------|
 |----------------------------------------|

[Bb] [Eb]~ PM--| [Gm/D] [D] ~
 
 |------------------------|-----------3-5-6-5h|=6p5-3-5-3h5p3--------|
 |-8-6h8p6----------------|---------3---------|---------------3------|
 |---------8-7-8-7--5-7-5-|-3-----3-----------|-----------------3-2--|
 |------------------------|-------------------|----------------------|
 |------------------------|-------------------|----------------------|
 |------------------------|-------------------|----------------------|

[Gm] [Cm] ~ [F] ~
 
 |---------------------|-----------------|------------------------|
 |---------------------|-----------------|------------------------|
 |---3-5-5b7r5p3---3---|-----3-3b5r3---3-|-2h3p2-5-(5)-3-5p3---3--|
 |-5-------------5---3-|-5-5-------------|-------------------5----|
 |---------------------|-----------------|------------------------|
 |---------------------|-----------------|------------------------|

[Bb] [Eb] ~~~ [Gm/D]~ [D] ~~~
 
 |----------------|-------------------|---------------*|
 |----------------|-------------------|---------------*|
 |----------------|-------------------|---------------*|
 |-5S8-7-8--------|-------------------|-3-----------5-*|
 |---------5b6----|-(5)---3-(3)-1-3-5-|-----5-(5)-----*|
 |----------------|-------------------|---------------*|

Lyrics:
I surrender to your heart babe
Do anything that you want me to do
Please be tender I'm in your hands girl
This is a feeling I never knew
You know I tried to make it on my own
That's not the way it was meant to be
spend my time waiting by the phone
Oh darling come back to me
I surrender, I surrender
I'm giving up the role of pretender
oh be tender, girl be tender
can't you feel the love that I spend on
I surrender.
I remember,seems like a lifetime
can't believe it's a matter of days
since you left me I'm near to heartbreak
I want you so bad don't turn away
what does it take to stay by my side
you know I'll do what you want me to
don't take away this feeling inside
I'm still in love with you
I surrender, I surrender
I'm giving up the role of pretender
oh be tender, girl be tender
can't you feel the love that I send on
I surrender.
I surrender, I surrender
darling now won't you be tender
surrender, oh surrender
can't you feel the love that I spend on
I surrender.
Tablature Legend
 
 ----------------

h - hammer-on
p - pull-off
b - bend
pb - pre-bend
r - bend release (if no number after the r, then release immediately)
/\ - slide into or out of (from/to "nowhere")
s - legato slide
S - shift slide
- natural harmonic
(n) - artificial harmonic
n(n) - tapped harmonic
~ - vibrato
tr - trill
T - tap
TP - trem. picking
PM - palm muting
\n/ - tremolo bar dip; n = amount to dip
\n - tremolo bar down
n/ - tremolo bar up
/n\ - tremolo bar inverted dip
= - hold bend; also acts as connecting device for hammers/pulls
- volume swell (louder/softer)
x - on rhythm slash represents muted slash
o - on rhythm slash represents single note slash
Misc Legend
 
 -----------

| - bar
|| - double bar
||o - repeat start
o|| - repeat end
*| - double bar (ending)
: - bar (freetime)
$ - Segno
& - Coda

Important: The song above is NOT stored on the Chordie server. The original song is hosted at www.guitaretab.com. Chordie works as a search engine and provides on-the-fly formatting. Chordie does not index songs against artists'/composers' will. To remove this song please click here.

Text color:
Chord color:
Chord grids: 
Font size:    
Page size: 

A Am Bb C C/G Cm D D7 Dm Dsus4 Eb Eb/G F G Gm Gm/D
Rate #1 of 7 versions

Jango Player

Login - add to songbook

SHARE PAGE  



You need to log in to post comments