Guitar Tabs, Chords and Lyrics
Server problems seems to be fixed. Chordie has been experiencing problems with songs disappearing. These issues now seems to be fixed, but still verifying the fix. If you find anything strange, please email admin@chordie.com.


Feuer und Wasser   Rammstein

 
 D|-------------------------------------------------------------------|
 A|-------------------------------------------------------------------|
 F|-------------------------------------------------(0)---------------|
 C|--0---0---0---0---0---0---0---0---0---0---0---0---0---0---0---0----|
 G|----0---0---0---0---0---0---0---0---0---0---0---0---0---0---0---0--|
 C|-------------------------------------------------------------------|

 


 


 And below if you listen you can hear Richard's fingers grazing the strings as he moves


 the frets. You may notice that


 when you play along the sound of your finges grazing the strings doesn't match the sound


 his. Now, if you're as into


 sounding just like the song as I am, pay attention and use your imagination; When


 index finger is holding the


 third fret on the third string, his pinky (or ring finger if he/you can stretch it that


 is on the fifth fret on the


 second string. Keeping fingers in this position he moves his hand up so that his index


 is now on the fifth fret on


 the third string and his pinky is on the seventh fret on the second string. Then he


 up again and his index finger is


 on the seventh fret on the second string and his pinky is on the eigth fret on the


 string. Then, after you've


 figured this out; repeat.


 


 

 
 D|-------------------------------------------------------------------|
 A|-------------------------------------------------------------------|
 F|-------------------------------------------------------------------|
 C|--3---5---7---7---3---5---7---7---3---5---7---7---3---5---7---7----|
 G|----5---7---8---8---5---7---8---8---5---7---8---8---5---7---8---8--|
 C|-------------------------------------------------------------------|
 D|-------------------------------------------------------------------------|
 A|-------------------------------------------------------------------------|
 F|-------------------------------------------------------------------------|
 C|--12----10----8----8----3---5---7---7---3---5---7---7---3---5---7---7----|
 G|-----13----12---10---10---5---7---8---8---5---7---8---8---5---7---8---8--|
 C|-------------------------------------------------------------------------|
 D|-------------------------------------------------------------------------|
 A|-------------------------------------------------------------------------|
 F|-------------------------------------------------------------------------|
 C|--3---5---7---7---12----10----8----8----0---0---0---0---0---0---0---0----|
 G|----5---7---8---8----13----12---10---10---0---0---0---0---0---0---0---0--|
 C|-------------------------------------------------------------------------|
 D|-----------------------------------------------------------------------|
 A|-----------------------------------------------------------------------|
 F|-----------------------------------------------------------------------|
 C|--8---8---8---8---5---5---7---7---0---0---0---0---10---10---10---10----|
 G|----8---8---8---8---5---5---7---7---0---0---0---0---10---10---10---10--|
 C|-----------------------------------------------------------------------|
 D|-----------------------------------------------------------------------|
 A|-----------------------------------------------------------------------|
 F|-----------------------------------------------------------------------|
 C|--8---8---8---8---5---5---7---7---3---3---7---7---12---12---10---10----|
 G|----8---8---8---8---5---5---7---7---0---0---0---0---10---10---10---10--|
 C|-----------------------------------------------------------------------|
 D|-------------------------------------------------------------------|
 A|-------------------------------------------------------------------|
 F|---------------------------------(0)-------------(0)---------------|
 C|--8---8---8---8---5---5---7---7---0---0---0---0---0---0---0---0----|
 G|----8---8---8---8---5---5---7---7---0---0---0---0---0---0---0---0--|
 C|-------------------------------------------------------------------|
 D|-------------------------------------------------------------------|
 A|-------------------------------------------------------------------|
 F|-------------------------------------------------------------------|
 C|--3---5---7---7---3---5---7---7---3---5---7---7---3---5---7---7----|
 G|----5---7---8---8---5---7---8---8---5---7---8---8---5---7---8---8--|
 C|-------------------------------------------------------------------|
 D|-------------------------------------------------------------------------|
 A|-------------------------------------------------------------------------|
 F|-------------------------------------------------------------------------|
 C|--12----10----8----8----3---5---7---7---3---5---7---7---3---5---7---7----|
 G|-----13----12---10---10---5---7---8---8---5---7---8---8---5---7---8---8--|
 C|-------------------------------------------------------------------------|
 D|-------------------------------------------------------------------------|
 A|-------------------------------------------------------------------------|
 F|-------------------------------------------------------------------------|
 C|--3---5---7---7---12----10----8----8----0---0---0---0---0---0---0---0----|
 G|----5---7---8---8----13----12---10---10---0---0---0---0---0---0---0---0--|
 C|-------------------------------------------------------------------------|
 D|-----------------------------------|
 A|-----------------------------------|
 F|-----------------(0)---------------|
 C|--0---0---0---0---0---0---0---0----|
 G|----0---0---0---0---0---0---0---0--|
 C|-----------------------------------|

 


 


 First riff


 

 
 D|---------------------------------------------------------------------------|
 A|---------------------------------------------------------------------------|
 F|---------------------------------------------------------------------------|
 C|--8-8-8-8-8-8-8-8-5-5-5-5-7-7-7-7-0-0-0-0-0-0-0-0-10-10-10-10-10-10-10-10--|
 G|--8-8-8-8-8-8-8-8-5-5-5-5-7-7-7-7-0-0-0-0-0-0-0-0-10-10-10-10-10-10-10-10--|
 C|--8-8-8-8-8-8-8-8-5-5-5-5-7-7-7-7-0-0-0-0-0-0-0-0-10-10-10-10-10-10-10-10--|
 D|-----------------------------------|
 A|-----------------------------------|
 F|-----------------------------------|
 C|--8-8-8-8-8-8-8-8-5-5-5-5-7-7-7-7--|
 G|--8-8-8-8-8-8-8-8-5-5-5-5-7-7-7-7--|
 C|--8-8-8-8-8-8-8-8-5-5-5-5-7-7-7-7--|

 


 


 Chorus


 

 
 D|---------------------------------------------------------------------------|
 A|---------------------------------------------------------------------------|
 F|---------------------------------------------------------------------------|
 C|--8-8-8-8-8-8-8-8-5-5-5-5-7-7-7-7-0-0-0-0-0-0-0-0-10-10-10-10-10-10-10-10--|
 G|--8-8-8-8-8-8-8-8-5-5-5-5-7-7-7-7-0-0-0-0-0-0-0-0-10-10-10-10-10-10-10-10--|
 C|--8-8-8-8-8-8-8-8-5-5-5-5-7-7-7-7-0-0-0-0-0-0-0-0-10-10-10-10-10-10-10-10--|[x2]
 D|-----------------------------------|
 A|-----------------------------------|
 F|-----------------------------------|
 C|--8-8-8-8-8-8-8-8-5-5-5-5-7-7-7-7--|
 G|--8-8-8-8-8-8-8-8-5-5-5-5-7-7-7-7--|
 C|--8-8-8-8-8-8-8-8-5-5-5-5-7-7-7-7--|

 


 


 Second riff


 

 
 D|-----------------------------------|
 A|-----------------------------------|
 F|-----------------------------------|
 C|--8-8-8-8-8-8-8-8-3-3-3-3-3-3-3-3--|
 G|--8-8-8-8-8-8-8-8-3-3-3-3-3-3-3-3--|
 C|--8-8-8-8-8-8-8-8-3-3-3-3-3-3-3-3--|
 D|-----------------------------------|
 A|-----------------------------------|
 F|-----------------------------------|
 C|--0~-------------------------------|
 G|--0~--------------0-0--------------|
 C|--0~--------------0-0--------------|[x4]

 


 pm . .


 


 Clean


 

 
 D|-------------------------------------------------------------------|
 A|-------------------------------------------------------------------|
 F|-------------------------------------------------------------------|
 C|--3---5---7---7---3---5---7---7---3---5---7---7---3---5---7---7----|
 G|----5---7---8---8---5---7---8---8---5---7---8---8---5---7---8---8--|
 C|-------------------------------------------------------------------|
 D|----------------------------------------|
 A|----------------------------------------|
 F|----------------------------------------|
 C|--12----10----8----8----3---5---7---7---|
 G|-----13----12---10---10---5---7---8---8-|
 C|----------------------------------------|

 


 


 Solo time. For those of you you aren't very good at fast, complex solos you shouldn't


 a problem here.


 This one sounds good but is quite slow. It stays between 12 and 15 for almost the duration of the solo.


 


 

 
 D|----------------|
 A|----------------|
 F|-------15---14--|
 C|----------------|
 G|--12------------|
 C|----------------|
 D|------------------------------------------------------------12---13---12-----|
 A|------------------------------------------15~---15~---15~--------------------|
 F|---------------------14---15---12~----14-------------------------------------|
 C|--15~---15~---14-12----------------------------------------------------------|
 G|-----------------------------------------------------------------------------|
 C|-----------------------------------------------------------------------------|
 D|----------------------------------------15--13------12--13--17/18--|
 A|-------------------15---------------------------15-----------------|
 F|---------------------------14--15--12~-----------------------------|
 C|------14---15--12------12------------------------------------------|
 G|--12---------------------------------------------------------------|
 C|-------------------------------------------------------------------|
 D|--15--13--12----------------|
 A|--------------15---13/15~---|
 F|----------------------------|
 C|----------------------------|
 G|----------------------------|
 C|----------------------------|
 D|---------------------------------------------------------------------------|
 A|---------------------------------------------------------------------------|
 F|---------------------------------------------------------------------------|
 C|--8-8-8-8-8-8-8-8-3-3-3-3-3-3-3-3-0-0-0-0-0-0-0-0-10-10-10-10-10-10-10-10--|
 G|--8-8-8-8-8-8-8-8-3-3-3-3-3-3-3-3-0-0-0-0-0-0-0-0-10-10-10-10-10-10-10-10--|
 C|--8-8-8-8-8-8-8-8-3-3-3-3-3-3-3-3-0-0-0-0-0-0-0-0-10-10-10-10-10-10-10-10--|
 D|------|
 A|------|
 F|------|


Important: The song above is NOT stored on the Chordie server. The original song is hosted at www.guitaretab.com. Chordie works as a search engine and provides on-the-fly formatting. Chordie does not index songs against artists'/composers' will. To remove this song please click here.

This song is displayed as text-only. Transposing and tuning is only available for chordpro-songs.
Rate #1 of 1 versions

Login - add to songbook

SHARE PAGE  



You need to log in to post comments