Guitar Tabs, Chords and Lyrics
Server problems seems to be fixed. Chordie has been experiencing problems with songs disappearing. These issues now seems to be fixed, but still verifying the fix. If you find anything strange, please email admin@chordie.com.


Strength to Endure  Ramones

The Ramones
submitted by: layne ramone
incesticide0041@yahoo.com
intro:
 
 e-----------------------------|-----------------------------|
 B-----------------------------|-----------------------------|
 G--5--4-----------------------|--5--9-----------------------|
 D--5--4-----------------------|--5--9-----------------------| [ play x2 ]
 A--3--2-----------------------|--3--7-----------------------|
 E--------5--5--3--5--3--5--0--|--------5--5--3--5--3--5--0--|

verse:
 
 e-----------------------------------|
 B-----------------------------------|
 G-----------------------------------| [play once for each line of lyrics]
 D-----------------------------------|
 A--3-3-3-3--2-2-2-2-----------------|
 E--------------------5-5-3-5-3-5-0--|

pm . . . . . . . . . . . . . . .
Walking through across the heart
Feeling heavy and hopeless
Wonderin' how I ever will
See through this darkness
Every drop of blood can be so beautiful
And I sure was bleedin' the drops by the bucketful
I have the s[C]trength to end[A]ure and [C]all the love so [G]pure
I have the s[C]trength to end[A]ure bec[G]ause, bec[F]ause
I'm not afraid to tell her
Just how things work
Ride a hurricane through the fast lane
Always looking over my shoulder
She said there's something about you
And neon lights always glow hot
Baby we can see this through
Just give me all the strength you've got
I have the...
solo: the rythum guitar plays the intro
 
 e----------------|-----------------|--------------------|-------------------|
 B----------------|-----------------|--------------------|-------------------|
 G----------------|-----------------|--------------------|-------------------|
 D----------------|-----------------|--------------------|--5/7-7-5-7-7------|
 A--3-3-3--2-2-2--|-----------------|--3--3-3--3/5--5-5--|--------------7-5--|
 E----------------|--5--3-5--3-5-0--|--------------------|-------------------|
 e----------------|-----------------|--------------------|-------------|
 B----------------|-----------------|--------------------|-------------|
 G----------------|-----------------|--7B--7B--7B----5---|--5-5--------|
 D----------------|--7-7-5-7-5------|-------------5----7-|-------5--7--|
 A--3-3-3--2-2-2--|------------7-5--|--------------------|-------------|
 E----------------|-----------------|--------------------|-------------|

(B=full bend)
I have the...
I'm not afraid...
I have the...
I have the...
outro:
 
 e-----------------------------|-----------------------------|
 B-----------------------------|-----------------------------|
 G--5--4-----------------------|--5--9-----------------------|
 D--5--4-----------------------|--5--9-----------------------|
 A--3--2-----------------------|--3--7-----------------------|
 E--------5--5--3--5--3--5--0--|--------5--5--3--5--3--5--0--|
 e-----------------------------|-----------------------|
 B-----------------------------|-----------------------|
 G--5--4-----------------------|--5---2----------------|
 D--5--4-----------------------|--5---2----7-7--5--7---|
 A--3--2-----------------------|--3---0----7-7--5--7---|
 E--------5--5--3--5--3--5--0--|-----------5-5--3--5---|

that's very punk rock...

Important: The song above is NOT stored on the Chordie server. The original song is hosted at www.guitaretab.com. Chordie works as a search engine and provides on-the-fly formatting. Chordie does not index songs against artists'/composers' will. To remove this song please click here.

Text color:
Chord color:
Chord grids: 
Font size:    
Page size: 

A C F G
Rate #1 of 7 versions

Login - add to songbook

SHARE PAGE  



You need to log in to post comments