Guitar Tabs, Chords and Lyrics
Server problems seems to be fixed. Chordie has been experiencing problems with songs disappearing. These issues now seems to be fixed, but still verifying the fix. If you find anything strange, please email admin@chordie.com.


Lost and Found  Randy Rogers Band

Capo 2nd fret
Intro:
G Em C D (x2)
 
 e|----------------------------------------------------------------|
 B|----------------------------------------------------------------|
 G|----2h4-5-4-2------2h4-5-4-2-----2h4-5-4-2-----2h4-5-4-2--------|
 D|--5-----------5-2------------5-------------5-2-----------5-5----|
 A|-------------------------------3--------------------------------|
 E|----------------------------------------------------------------|
 e|--------------------------------------------------------------|
 B|--------------------------------------------------------------|
 G|--2h4-5-4-2------2h4-5-4-2-----2h4-5-4-2-----2h4-5-4-2--------|
 D|------------5-2------------5-------------5-2-----------5--4--5|
 A|-----------------------------3--------------------------------|
 E|--------------------------------------------------------------|

Verse 1:
[G]Day after day I [D]tell myself
You [C]never meant the words that you said[G] [D]
[G]Night after night I [D]lie here alone
[C]Can't get you out of my head [G] [Em7]
Like a [Em]fool I let our [C]love slip away
You [Em]left me here, what [C]more can I [D]say
Chorus:
[G]I missed my chance I lost my t[Em]urn
My ship sank I crashed and [C]burned
Broke your heart and then I [D]let myself down
[G]I lost the fight I lost the ga[Em]me
Now there's only me to [C]blame
If you wonder where I [D]am
Check the lost and found[G]
[G] [Em] [C] [D]  
Verse 2:
[G]Time after time, [D]I fell short
[C]Of the man you needed me to b[G]e [D]
[G]And lie after lie, I [D]left you no choice
[C]But to pack your clothes and leav[G]e [Em7]
I've got t[Em]oo much pride to [C]beg you to stay
So [Em]before you go j[C]ust let me s[D]ay
Chorus:
[G]I missed my chance I lost my t[Em]urn
My ship sank I crashed and [C]burned
Broke your heart and then I [D]let myself down
[G]I lost the fight I lost the ga[Em]me
Now there's only me to [C]blame
If you wonder where I [D]am
Check the lost and found[G]
Outro:
[Em] My ship sank I crashed and [C]burned
Broke your heart and then I [D]let myself down
[G]I lost the fight I lost the ga[Em]me
Now there's only me to [C]blame
If you wonder where I [D]am
Check the lost and found[G]
[Em] Now if you want to f[C]ind me
D (Hold)
Check the lost and found

Important: The song above is NOT stored on the Chordie server. The original song is hosted at www.guitaretab.com. Chordie works as a search engine and provides on-the-fly formatting. Chordie does not index songs against artists'/composers' will. To remove this song please click here.

Text color:
Chord color:
Chord grids: 
Font size:    
Page size: 

C D Em Em7 G
Rate #1 of 3 versions

Login - add to songbook

SHARE PAGE  



You need to log in to post comments