Guitar Tabs, Chords and Lyrics
Server problems seems to be fixed. Chordie has been experiencing problems with songs disappearing. These issues now seems to be fixed, but still verifying the fix. If you find anything strange, please email admin@chordie.com.


Liquid  The Rasmus

Artist : The Rasmus
Song : Liquid Demo
Album : Hell Of A Collection
Tab by: Beberasmus bebe_4048@hotmail.com
Intro:
C ~
Verse 1st guitar:
I go [Am]solid when[E7] you come aroun[D]d, and I kno[Bm]w[C]
I go [Am]silent,but[E7] don`t get me w[D]rong, time will sh[Bm]ow[Em]
I lov[Am]e to wat[E7]ch you when you[D] mess around,[Bm] with [C]my mind
IR[Am]17;m patheti[E7]c but only th[D]is time, but who k[Bm]nows. [Em]
Verse 2nd guitar:
[0:09]:
 
 E|---------------|
 B|---------------|
 G|-4-------------|
 D|----7--5--4----|
 A|-------------7-|
 E|---------------|

[0:19]:
 
 E|---------------|
 B|---------------|
 G|-7--5--4-------|
 D|----------7--5-|
 A|---------------|
 E|---------------|

[0:30]:
 
 E|---------------|
 B|---------------|
 G|-4-------------|
 D|----7--5--4----|
 A|-------------7-|
 E|---------------|

Prechorus:
1st guitar:
[C] [D#]  
2nd guitar:
 
 E|---------------|
 B|---------------|
 G|-x-x-x-x-x-x-x-|
 D|-x-x-x-x-x-x-x-|
 A|-x-x-x-x-x-x-x-|
 E|---------------|

Chorus 1st guitar:
[G]I`m never gonna let you call [Em]me, I`m n[G]ever gonna let you foo[Em]l me, oh no
[D]If it`s the love that we li[G]ve for,how come I didn`t know[A]
[A]please lead me o[D]ut
Chorus 2nd guitar:
[0:51] 
 
 E|----7------------------------------------|
 B|------8----------------------------------|
 G|-----------------------------------------|
 D|---------9-9--7-7--5-5--4-4--------------|
 A|-7---------------------------5-7-9-10-12-|x2
 E|-----------------------------------------|

Verse 2 1st guitar:
I go [Am]solid when[E7] you come aroun[D]d, and I kno[Bm]w[C]
I go [Am]silent,but[E7] don`t get me w[D]rong, time will sh[Bm]ow[Em]
I lov[Am]e to wat[E7]ch you when you[D] mess around,[Bm] with [C]my mind
IR[Am]17;m patheti[E7]c but only th[D]is time, but who k[Bm]nows. [Em]
Verse 2 2nd guitar:
[1:20]:
 
 E|---------------|
 B|---------------|
 G|-4-------------|
 D|----7--5--4----|
 A|-------------7-|
 E|---------------|

[1:30]:
 
 E|---------------|
 B|---------------|
 G|-7--5--4-------|
 D|----------7--5-|
 A|---------------|
 E|---------------|

[1:40]:
 
 E|---------------|
 B|---------------|
 G|-4-------------|
 D|----7--5--4----|
 A|-------------7-|
 E|---------------|

[1:51]:
 
 E|---------------|
 B|---------------|
 G|-7--5--4-------|
 D|----------7--5-|
 A|---------------|
 E|---------------|

Prechorus:
1st guitar:
[C] [D#]  
2nd guitar:
 
 E|---------------|
 B|---------------|
 G|-x-x-x-x-x-x-x-|
 D|-x-x-x-x-x-x-x-|
 A|-x-x-x-x-x-x-x-|
 E|---------------|

Chorus 1st guitar:
[G]I`m never gonna let you call [Em]me, I`m n[G]ever gonna let you foo[Em]l me, oh no
[D]If it`s the love that we li[G]ve for,how come I didn`t know[A]
[A]please lead me o[D]ut
Chorus 2nd guitar:
[2:02] 
 
 E|----7------------------------------------|
 B|------8----------------------------------|
 G|-----------------------------------------|
 D|---------9-9--7-7--5-5--4-4--------------|
 A|-7---------------------------5-7-9-10-12-|x2
 E|-----------------------------------------|

Bridge 1st guitar:
[Am] [E7] [D] [Bm] [C]  
[Am] [E7] [D] [Bm] [Em]  
Bridge 2nd guitar:
[2:28]:
 
 E|---------------|
 B|---------------|
 G|-4-------------|
 D|----7--5--4----|
 A|-------------7-|
 E|---------------|

Prechorus:
1st guitar:
[C] [D#]  
2nd guitar:
 
 E|---------------|
 B|---------------|
 G|-x-x-x-x-x-x-x-|
 D|-x-x-x-x-x-x-x-|
 A|-x-x-x-x-x-x-x-|
 E|---------------|

Chorus 1st guitar:
[G]I`m never gonna let you call [Em]me, I`m n[G]ever gonna let you foo[Em]l me, oh no
[D]If it`s the love that we li[G]ve for,how come I didn`t know[A]
[A]please lead me o[D]ut
Chorus 2nd guitar:
[2:49] 
 
 E|----7------------------------------------|
 B|------8----------------------------------|
 G|-----------------------------------------|
 D|---------9-9--7-7--5-5--4-4--------------|
 A|-7---------------------------5-7-9-10-12-|x2
 E|-----------------------------------------|

End!
Easy
PLZ REATE
PEACE!!!!!!

Important: The song above is NOT stored on the Chordie server. The original song is hosted at www.guitaretab.com. Chordie works as a search engine and provides on-the-fly formatting. Chordie does not index songs against artists'/composers' will. To remove this song please click here.

Text color:
Chord color:
Chord grids: 
Font size:    
Page size: 

A Am Bm C D D# E7 Em G
Rate #1 of 6 versions

Jango Player

Login - add to songbook

SHARE PAGE  



You need to log in to post comments