Guitar Tabs, Chords and Lyrics
Server problems seems to be fixed. Chordie has been experiencing problems with songs disappearing. These issues now seems to be fixed, but still verifying the fix. If you find anything strange, please email admin@chordie.com.


Tonight, Tonight  The Rasmus

Artist : The Rasmus |
Song : Tonight, Tonight |
Album : Hell Of A Tester/Hell Of A Collection |
Tuning : Standard |
 
 -------------------------------------------------|

INTRO:
[F] [A#] [F] [A#] [F] [A#] [C]  
If you have two guitars , one guitar can play the tones from the tab
and the other one plays powerchords
[F5] [A#5] [F5] [A#5] [F5] [A#5] [C5]  
 
 |------------------------------------------------------------|
 |------------------------------------------------------------|
 |------------------------------------------------------------|
 |--------------0-3--------------0-3-------------0-3----------|
 |------0-1-3-3----------0-1-3-3---------0-1-3-3-----33333333-|
 |--1-1--------------1-1-------------1-1----------------------|

Verse
Listen to the song to get the right rhythm, i tabbed
it for better understanding :
[F5] [A5] [A#5] [F] [A] [A#] [C]  
 
 |-------------------------------------------------| 2x
 |-------------------------------------------------|
 |--------------------2-------6-------7---------9--|
 |------------------3-------7-------8--------10----|
 |--3--7--8-8-----3-------7-------8-------10-------|
 |--1--5--6-6---1-------5-------6-------8----------|

[F5] now that [A5]you know that [A#5]committing is hard
[F]it's time to [A]fly [A#]around and[C] I say
[F5] no more [A5]walking hand in [A#5]hand in the park
[F]it's time to [A]fly [A#]around and[C] I say
Chorus
you can use the tab from the intro for the 2nd guitar.
[F]yeah yeah y[A#]eah [F]time to fly [A#]around
[F]yeah yeah y[A#]eah [C]
[F]yeah yeah y[A#]eah [F]time to fly [A#]around
[F]yeah yeah y[A#]eah [C]
VERSE
use the tab from the first verse
[F5] let me [A5]know when you're [A#5]back in control
[F]when you [A]exit [A#]again and[C] I say
[F5] would it[A5] be so bad to[A#5] be alone
[F]for a [A]while and [A#]smile when [C]I say.
Chorus
[F]yeah yeah y[A#]eah [F]time to fly [A#]around
[F]yeah yeah y[A#]eah [C]
[F]yeah yeah y[A#]eah [F]time to fly [A#]around
[F]yeah yeah y[A#]eah [C]
Saxophone Solo
[F5] [A5] [A#5] [F] [A] [A#] [C]  
 
 |-------------------------------------------------| 2x
 |-------------------------------------------------|
 |--------------------2-------6-------7---------9--|
 |------------------3-------7-------8--------10----|
 |--3--7--8-8-----3-------7-------8-------10-------|
 |--1--5--6-6---1-------5-------6-------8----------|

Chorus
[F]yeah yeah y[A#]eah [F]time to fly [A#]around
[F]yeah yeah y[A#]eah , to[C]night, tonight ,yeah
[F]yeah yeah y[A#]eah [F]time to fly [A#]around
[F]yeah yeah y[A#]eah [C]
Enjoy !
and please rate it , questions or corretions to schattenkrieger2005@hotmail.de

Important: The song above is NOT stored on the Chordie server. The original song is hosted at www.guitaretab.com. Chordie works as a search engine and provides on-the-fly formatting. Chordie does not index songs against artists'/composers' will. To remove this song please click here.

Text color:
Chord color:
Chord grids: 
Font size:    
Page size: 

A A# A#5 A5 C C5 F F5
Rate #1 of 2 versions

Login - add to songbook

SHARE PAGE  




You need to log in to post comments