Guitar Tabs, Chords and Lyrics
Major upgrade!! After one year development the new version of Chordie is now online! Please give feedback.


Guilty  The Rasmus

The Rasmus : Guilty
Chords by : Hariz05 (twitter.com/CubaTryTest)
Tuning : Standard (EADGBe)
Capo : On (1st fret)
[INTRO] 
 
 |---------------0-|
 |-------1---1-3---|
 |---------2-------|
 |-0-3-2-----------|
 |-----------------|
 |-----------------|

Dm Bb C Am Bb C x2
[VERSE 1] 
[Dm]I feel so guilty
[C]My words are [Am]emp[Bb]ty
[Dm]No signs to give you
[C]Don`t have a t[Am]ime for [Bb]you
[Dm]You said I'm heartless
[C]Then you said I [Am]don't [Bb]care
[Dm]I used to be there for you
[PRE-CBORUS] 
[C]You've said I [Am]seem so [Bb]dead
That [Am]I have [Bb]changed
And [Am]so have [Bb]you
[CBORUS] 
[Dm]Guilty, [Bb]woa[C]h~
[Am]Guilty, I [Bb]feel [C]so
[Dm]Empty, [Bb]yea[C]h~
[Am]Empty, you [Bb]know to [C]make me feel
[VERSE 2] 
[Dm] [C] [Am] [Bb]  
I put a shield upon you
Didn't mean to hurt you
Would've only the poison your mind
Never meant to make you cry
You've been so thoughtless
I can see right trough you
You used to be there for me
[PRE-CBORUS] 
[C]Don`t you leave and [Am]say [Bb]goodbye,
Cause [Am]you have c[Bb]hanged
But [Am]so have [Bb]I
[CBORUS] 
[Dm]Guilty, [Bb]woa[C]h~
[Am]Guilty, I [Bb]feel [C]so
[Dm]Empty, [Bb]yea[C]h~
[Am]Empty, you [Bb]know to [C]make me feel
[BRIDGE] 
[Bb]I`ve never thought that the [C]time and the distance
be[F]tween us made you so much [Dm]colder
I [Gm]carry the world on my [C]shoulders
 
 |---------------------------------|
 |---------------------------------|
 |-------------0-2-2-0-------------|
 |-------0-2-3---------3-2-0-------|
 |-0-1-3---------------------3-1-0-|
 |---------------------------------|

(Guilty), woah~
(Guilty), yeah~
Guilty, woah~
Empty, yeah~
 
 |---------------------------------|
 |---------------------------------|
 |-------------0-2-2-0-------------|
 |-------0-2-3---------3-2-0-------|
 |-0-1-3---------------------3-1-0-|
 |---------------------------------|

[CBORUS] x2
[Dm]Guilty, [Bb]woa[C]h~
[Am]Guilty, I [Bb]feel [C]so
[Dm]Empty, [Bb]yea[C]h~
[Am]Empty, you [Bb]know to [C]make me feel
[OUTRO] 
[Dm]Guil[Bb]ty,[C] so [Am]guilty[Bb] [C]
[Dm]Empt[Bb]y, [C]so [Am]empty
You know [Bb]how to [C]make me feel[Dm]

Important: The song above is NOT stored on the Chordie server. The original song is hosted at www.guitaretab.com. Chordie works as a search engine and provides on-the-fly formatting. Chordie does not index songs against artists'/composers' will. To remove this song please click here.

Text color:
Chord color:
Chord grids: 
Font size:    
Page size: 

Am Bb C Dm F Gm
Rate #1 of 6 versions

Jango Player

Login - add to songbook

SHARE PAGE  



You need to log in to post comments