Guitar Tabs, Chords and Lyrics
Major upgrade!! After one year development the new version of Chordie is now online! Please give feedback.


Kola   The Rasmus

 
 e|----------------|
 H|----------------|
 G|-11-9-7-6-(2)---|
 D|-11-9-7-6-(2)-4-|
 A|-9--7-5-4--0--4-|
 E|--------------2-|

 


 


 Verse :


 

 
 e|-----------------------------------| [2x]
 H|-----------------------------------|
 G|-----------------------------------|
 D|-4-4-2-4--4-4-2-4-5-4-4-2-4--4-----|
 A|-4-4-2-4--4-4-2-4-5-4-4-2-4--4-----|
 E|-2-2-0-2--2-2-0-2-3-2-2-0-2--2-----|
 e|---------------------------------------|
 H|---------------------------------------|
 G|---------------------------------------|
 D|-4-4-2-4--4-4-2-4-5-4-4-2-4--55555555--|
 A|-4-4-2-4--4-4-2-4-5-4-4-2-4--55555555--|
 E|-2-2-0-2--2-2-0-2-3-2-2-0-2--33333333--|

 


 


 Refrain


 


 

 
 e|------------------------------------------|
 H|------------------------------------------|
 G|------------------------------------------|
 D|-4444444-3-4444444-2--4444444-3-44444-----|
 A|-4444444-3-4444444-2--4444444-3-44444-----|
 E|-2222222-5-2222222-0--2222222-5-22222-----|

 


 


 Verse


 Refrain


 


 

 
 e|---------------| [2x] ( / = Slide Down )
 H|---------------|
 G|---------------|
 D|---------------|

 


 A|-12/10/9/7/5/4-|


 

 
 E|---------------| 


Important: The song above is NOT stored on the Chordie server. The original song is hosted at www.guitaretab.com. Chordie works as a search engine and provides on-the-fly formatting. Chordie does not index songs against artists'/composers' will. To remove this song please click here.

This song is displayed as text-only. Transposing and tuning is only available for chordpro-songs.
Rate #2 of 2 versions

Jango Player

Login - add to songbook

SHARE PAGE  




You need to log in to post comments