Guitar Tabs, Chords and Lyrics
Major upgrade!! After one year development the new version of Chordie is now online! Please give feedback.


Dead Promises  The Rasmus

Artist : The Rasmus
Song : Dead Promises
Album : Hide From The Sun
Tab : §chattenkrieger
PLEASE RATE THIS TAB!
Piano Intro and Verse , transcripted for guitar :
 
 |---19----19----20----20----18----18----19----19----|
 |------17----17----17----17----17----17----16----16-|
 |---------------------------------------------------|
 |---------------------------------------------------|
 |---------------------------------------------------|
 |---------------------------------------------------|

Intro
 
 ----------------| 3x
 ----------------|
 ----------------|
 --4--4--4--4--2-|
 --4--4--4--4--2-|
 --2--2--2--2--0-|

Verse
play the piano intro through the whole verse
Interlude
If you have no piano , you can play these chords through the whole verse.
[Em] [G] [C] [B] 
 
 |-----------0-----------3---------------0-----------2--|
 |-----------0-----------0---------------1-----------0--|
 |-----------0-----------0------------------------------|
 |------------------------------------2----------4------|
 |--------2----------2-------------3--------2-----------|
 |-----0--------3---------------------------------------|

Hide from the sun...
[Em] [G] [C] [B]  
 
 --------------0--------------3------------0----------2-|
 --------------0--------------0------------1----------0-|
 --------------0--------------0-------------------------|
 ---------------------------------------2----------4----|
 -----------2----------2-------------3--------2---------|
 --------0--------3-------------------------------------|

Verse
 
 ----------------| 4x
 ----------------|
 ----------------|
 --4--4--4--4--2-|
 --4--4--4--4--2-|
 --2--2--2--2--0-|

after this part, play the interlude again
Chorus
 
 |-------------------------------------------------------| 2x
 |-------------------------------------------------------|
 |---------5555555555555555------------------------------|
 |---------5555555544444444----222----222-----222----222-|
 |---------3333333333333333-XX-222-XX-222-XXX-222-XX-222-|
 |--------------------------XX-000-XX-000-XXX-000-XX-000-|
 |--------------------------------|
 |--------------------------------|
 |---------5~~---6~~---4-5-4------|
 |---------5~~---6~~---4-5-4------|
 |---------3~~---4~~---2-3-2------|
 |--------------------------------|

the time has come..
(Verse)
(Interlude)
(Chorus)
Bride
I think they use a clean sound, but I'm not sure
 
 ---------------------------|
 ---------------------------|
 ---------------------------|
 ---------------------------|
 ---------------------------|
 ---0--0--0--0--0--0--0--0--| 4x

PM . . . . . . . .
 
 ---------------------------|
 ---------------------------|
 ---------------------------|
 ---------------------------|
 ---3--3--3--3--3--3--3--3--| 2x
 ---------------------------|

PM . . . . . . . .
 
 ---------------------------|
 ---------------------------|
 ---------------------------|
 ---------------------------|
 ---------------------------| 2x
 ---2--2--2--2--2--2--2--2--|

PM . . . . . . . .
--> Distortion
 
 -----------------------------|
 -----------------------------|
 -----------------------------|
 --xx-2---xx-2---xx-2---4--5--|
 --xx-2---xx-2---xx-2---4--5--|
 --xx-0---xx-0---xx-0---2--3--| 3x

After the bridge play the chorus again
Outro
 
 -----------------|
 -----------------|
 --------4-5-4~---|
 --7--2--4-5-4~---|
 --7--2--2-3-2~---|
 --5--0-----------|

Enjoy!
if you have any questions or corrections -> schattenkrieger2005@hotmail.de

Important: The song above is NOT stored on the Chordie server. The original song is hosted at www.guitaretab.com. Chordie works as a search engine and provides on-the-fly formatting. Chordie does not index songs against artists'/composers' will. To remove this song please click here.

Text color:
Chord color:
Chord grids: 
Font size:    
Page size: 

B C Em G
Rate #1 of 2 versions

Jango Player

Login - add to songbook

SHARE PAGE  



You need to log in to post comments