Guitar Tabs, Chords and Lyrics
Server problems seems to be fixed. Chordie has been experiencing problems with songs disappearing. These issues now seems to be fixed, but still verifying the fix. If you find anything strange, please email admin@chordie.com.


Almost Beautiful  Reality Addiction

Standard tuning Capo 4th fret
Listen to the song as you learn it so you can figure out how exactly its played.
Chords used.
3 0 2 0
3 1 3 0
0 0 2 9
0 2 0 9
2 3 x 7
3 x x 0
[G] [C] [D] [F#]  
V=up stroke
[Intro] 
Part 1
V V V V V V V
 
 ------------------------------------------------------------|
 ------------------------------------------------------------|
 0--0--0--0----0--0--0--0----0--0--0--0--0--0--0-------------|
 0--0----------0--0----------0--0--0--0--0-------------------|
 2--2----------2--2----------2--2--2--2--2-------------------|
 3--3----------3--3----------3--3--3--3--3-------------------|
 [------------------------------------------------------] x11
 -----------------------|
 -----------------------|
 ---0--0-0-0-0-0-0-0----|
 ---0--0-0-0-0-0-0-0----|
 ---2--2-2-2-2-2-2-2----|
 ---3--3-3-3-3-3-3-3----|

Part 2
V V V V V V V V V
 
 -------------------------2-2----------------------|
 -----------1---------1---3-3----------------------|
 0-0--0-0---0--0--0---0---2-2--2---2-2-2-2h4p2p0---|
 0-0--------2---------2---0-0----0-----------------|
 2-2--------3---------3----------------------------|
 3-3-----------------------------------------------|
 [------------------------------------------------]x4
 2-2-2-2-2-2-2-2-----------------------|
 3-3-3-3-3-3-3-3-----------------------|
 2-2-2-2-2-2-2-2-----------------------|
 0-0-0-0-0-0-0-0-----------------------|
 --------------------------------------|
 --------------------------------------|

[Verse 1] 
[G]Breath in[C], The air t[F#]hat you bel[D]ieve
[G]Smoke [C]in, Its m[F#]ore then what you [D]see
[G]Feelin?[C] the weigh[F#]t upon your knees[D]
[G]Fight bac[C]k, its not everyth[F#]ing you m[D]ake of it
[Cborus] 
[C]If you think [D]about the rea[F#]lity of i[D]t all
[C]You start to [D]doubt what k[F#]ind of ma[D]n you are
[C]Holding us d[D]own is the g[F#]ravity [D]in our h[C]earts
If you look c[D]lose enough
It can almost be beautiful
[Intro part 2] 
Almost beautiful
[Verse 2] 
[G]Too un[C]fair f[F#]or to [D]long
[G]Trying to [C]bear the p[F#]art of you that [D]is alone
[G]People are ever[C]ywhere
T[F#]his you gotta do on your o[D]wn
[G]Gasping f[C]or air (a sad effe[F#]ct of the unk[D]nown)
[Cborus 2] 
[C]If you think a[D]bout the t[F#]ragedy of [D]it all
[C]You start to d[D]oubt what k[F#]ind of m[D]an you are
[C]Blacking us o[D]ut is a lig[F#]ht that see[D]ms so f[C]ar
And if you wa[D]it long enough
It can almost be beautiful
[Intro part 2] 
Almost beautiful
[Instrumental] 
G,C,D,C x4
[Cborus 3] 
[C]I figured o[D]ut a pe[F#]ace after[D] the storm
[C]And it doesn?t [D]count for w[F#]ho we c[D]an become
[C]Give it a[D]ll out
Only o[F#]ne life [D]to fight this w[C]ar
And if you find a w[D]ay to love
It will be beaut[F#]iful[D] [F#] [D]
[F#]It will b[D]e beautiful[G]

Important: The song above is NOT stored on the Chordie server. The original song is hosted at www.guitaretab.com. Chordie works as a search engine and provides on-the-fly formatting. Chordie does not index songs against artists'/composers' will. To remove this song please click here.

Text color:
Chord color:
Chord grids: 
Font size:    
Page size: 

C D F# G
Rate #1 of 6 versions

Login - add to songbook

SHARE PAGE  




You need to log in to post comments