Guitar Tabs, Chords and Lyrics
Server problems seems to be fixed. Chordie has been experiencing problems with songs disappearing. These issues now seems to be fixed, but still verifying the fix. If you find anything strange, please email admin@chordie.com.


Otherside  Red Hot Chili Peppers



eb----------------------------------------------------------- 


Bb----------------------------------------------------------- 


Gb------------------2---2---4---2----------------------------


Db----2--2--2------------------------5---2--2-----0---0------


Ab----0-------------3----------------------------------------


Eb------------------------------------------0---------3------ 


eb------------------------------------------------------------ 


Bb------------------------------------------------------------ 


Gb------------------------------------------------------------


Db------------------7---7---9---7-----------------------------


Ab-----7--7--7----------------------10---7--7---5---5---------


Eb------------------------------------------------------------


eb------------------------0--0--0------------------------- 


Bb--------------------------------------0--0--0----------- 


Gb-------------2--2-2------------------------------------- 


Db----2--2-2---------------------------------------------- 


Ab----0--------3---------3-------------------------------- 


Eb--------------------------------------3----------------- 


eb-------------------------------------------------------- 


Bb-------------------------------------------------------- 


Gb------------------------9--9--9----12-12-12-------------


Db---------------7--7-7----------------------------------- 


Ab----7--7--7--------------------------------------------- 


Eb-------------------------------------------------------- 


eb----------------------------------------15------------


Bb------------------------------13-12------------------- 


Gb------------------------------------------------------ 


Db------------------------------------------------------ 


Ab------------------------------------------------------ 


Eb-----5-(5)---/----12----------------------------------

[Am]I h[Em]eard your voice through a photograph
[Am]I t[Em]hought it up it brought up the past
[Am]Onc[Em]e you know you could never go back
[G]I'[Am]ve got to take it on the otherside
[Am]Cen[Em]turies are what it meant to me
[Am]A c[Em]emetery where I marry the sea
[Am]Str[Em]anger things could never change my mind
[G]I'[Am]ve got to take it on the otherside
[G]Ta[Am]ke it on the otherside
[G]Take it on
[Am]Take it on
CHORUS
[Am]How[F] l[C]ong how long will I slide
[G]Se[Am]par[F]at[C]e my side I don't
[G]I [Am]don[F]'t believe it's bad
[C]Slit my throat
[G]It's all I ever
[Am]Pou[Em]r my life into a paper cup
[Am]The[Em] ashtray's full and I'm spillin' my guts
[Am]She[Em] wants to know am I still a slut
[G]I'[Am]ve got to take it on the otherside
[Am]Sca[Em]rlet starlet and she's in my bed
[Am]A c[Em]andidate for my soul mate bled
[Am]Pus[Em]h the trigger and pull the thread
[G]I'[Am]ve got to take it on the otherside
[G]Ta[Am]ke it on the otherside
[G]Take it on
[Am]Take it on
CHORUS
[Em]     [G]  [/Em]      [G]   [Em]Take me on take me for a hard ride
[G]Burn me out leave me on the otherside
[Em]I yell and tell it that
It's not my friend
[G]I tear it down I tear it down
And then it's born again
CHORUS
[Am]How[F] l[C]on[G]g [Am]I d[F]on't I don't believe it's fair
[C]Slit my throat
[G]It[Am]'s all I ever
Ok the solo is realy short so here it is
======================================
ok repeat the 15p12 As needed listen for the Rythm
eb------------------------12---12--12--15p12--12----

Bb-10----10--10--10---------------------------------
Gb--------------------------------------------------
Db--------------------------------------------------
Ab--------------------------------------------------
Eb--------------------------------------------------
======================================
If you have any Questions about it feel free to ask and if you want a
tab for another song maybe i know it�So Keep On Picking�
Zombie

Important: The song above is NOT stored on the Chordie server. The original song is hosted at www.guitaretab.com. Chordie works as a search engine and provides on-the-fly formatting. Chordie does not index songs against artists'/composers' will. To remove this song please click here.

Text color:
Chord color:
Chord grids: 
Font size:    
Page size: 

Am C Em F G
Rate #1 of 9 versions

Jango Player

Login - add to songbook

SHARE PAGE  



You need to log in to post comments

fatmothaman (report)

sweet nice and easy