Guitar Tabs, Chords and Lyrics
Major upgrade!! After one year development the new version of Chordie is now online! Please give feedback.


This Velvet Glove  Red Hot Chili Peppers

Song:This Velvet Glove
Album:Californication
Tabber:rad_guitar
Tuning:EADGBe
Intro
repeat first part
 
 e|---------------------------------------------------------------|
 B|---------------------------------------------------------------|
 G|-------------------------------------12-10-9-------------------|
 D|----10--12---10--12---------------------------10--10h12--------|
 A|-12--------10--------------------------------------------------|
 E|----------------------13--12--13p12----------------------------|
 e|---------------------------------------------------------------|
 B|---------------------------------------------------------------|
 G|-------------------------------------12-10-9-------------------|
 D|----10--12---10--12---------------------------10--10h12--------|
 A|-12--------10--------------------------------------------------|
 E|----------------------13--12--13p12----------------------------|
 |-----------------------------|---------------------------------|
 |-10--------------------------|-10---10----10------13-x13-10----|
 |-----12--9-------7---7-7-7 --|--------------------12-x12-------|
 |------------10---------------|---------------------------------|
 |-----------------------------|---------------------------------|
 |-----------------------------|---------------------------------|

Chords verse-part acoustic Chords chorus acoustic guitar
Dsus2 C Am(7) C Dsus2 C 3X Am7 D5
 
 e|-0--0-----0-0--0--0-----0-|--0---0--0-0------0----------|
 B|-3--1-----0-1--1--1-----0-|--3---1--0-1------1------3---|
 G|-2--0-----0-2--0--0-----0-|--2---0--0-0------0------2---|
 D|-0--2-----2-2--2--2-----2-|--0---2--2-2------2------0---|
 A|----3-----3-0--0--3-----3-|------3--3-3------0------0---|
 E|--------------------------|-----------------------------|

Electric part before 2nd chorus
strum chord stabs!
 
 e|----------12---/15-15-|
 B|-10-12-13-10----------|
 G|-10-10-10-10----------|
 D|-7--7--7--7-----------|
 A|----------------------|
 E|----------------------|

chorus
Dm Em/c
 
 e|--13-----------13-----------15-15-15-----/15-15-15-|
 B|--15-15-15-15--15-15-15 \---17-17-17-17 --17-17-17-|
 G|-----14-14-14-----14-14 \---16-16-16-16 --16-16-16-|
 D|-(12)---------(12)---------------------------------|
 A|---------------------------(15)----------(15)------|
 E|---------------------------------------------------|

Dm Em/c
 
 e|--13-----------13-----------15-15-15-----/15-15-15-|
 B|--15-15-15-15--15-15-15 \---17-17-17-17 --17-17-17-|
 G|-----14-14-14-----14-14 \---16-16-16-16 --16-16-16-|
 D|-(12)---------(12)---------------------------------|
 A|---------------------------(15)----------(15)------|
 E|---------------------------------------------------|

Dm Em/c
 
 e|--13-----------13-----------15-15-15-----/15-15-15-|
 B|--15-15-15-15--15-15-15 \---17-17-17-17 --17-17-17-|
 G|-----14-14-14-----14-14 \---16-16-16-16 --16-16-16-|
 D|-(12)---------(12)---------------------------------|
 A|---------------------------(15)----------(15)------|
 E|---------------------------------------------------|

[Am7] [D5]  
 
 e|----15-12-12--12h15-12-12 \-----5------------------|
 B|----13-13-13--13----13-13 \-----3------------------|
 G|----14-14-14--14----14-14 \-----2------------------|
 D|--------------------------------0------------------|
 A|---(12)------(12)----------------------------------|
 E|---------------------------------------------------|
 |--------------------------------------------------------------------------|
 |------OR You Can Play the intro Like This eihter or it doesn't matter-----|
 |--------------------------------------------------------------------------|

Intro + verse
 
 e|---------------------------------------6----------4--------------------|
 B|-----------------------------------------6-4--------6-4----------------|
 G|--------4-6------4-6-------------------------4-6--------4-6------------|
 D|-----6--------4--------------------------------------------------------|
 A|---------------6-7-----6h7---------------------------------------------|
 E|-----------------------------------------------------------------------|
 e|---------------------------------------6----------4--------------------|
 B|-----------------------------------------6-4--------6-4----------------|
 G|--------4-6------4-6-------------------------4-6--------4-6------------|
 D|-----6--------4--------------------------------------------------------|
 A|---------------6-7-----6h7---------------------------------------------|
 E|-----------------------------------------------------------------------|
 e|-----4-----------------------|---------------------------------|
 B|--------6-5------------------|-4---4----4---------13-x13-10----|
 G|-------------4-7---7-7-7 ----|--------------------12-x12-------|
 D|-----------------------------|---------------------------------|
 A|-----------------------------|---------------------------------|
 E|-----------------------------|---------------------------------|

Chords verse-part acoustic Chords chorus acoustic guitar
Dsus2 C Am(7) C Dsus2 C 3X Am7 D5
 
 e|-0--0-----0-0--0--0-----0-|--0---0--0-0------0----------|
 B|-3--1-----0-1--1--1-----0-|--3---1--0-1------1------3---|
 G|-2--0-----0-2--0--0-----0-|--2---0--0-0------0------2---|
 D|-0--2-----2-2--2--2-----2-|--0---2--2-2------2------0---|
 A|----3-----3-0--0--3-----3-|------3--3-3------0------0---|
 E|--------------------------|-----------------------------|

Just before the chorus
 
 e|----------12---/15-15-|
 B|-10-12-13-10----------|
 G|-10-10-10-10----------|
 D|-7--7--7--7-----------|
 A|----------------------|
 E|----------------------|

chorus
Dm Em/c
 
 e|--13-----------13-----------15-15-15-----/15-15-15-|
 B|--15-15-15-15--15-15-15 \---17-17-17-17 --17-17-17-|
 G|-----14-14-14-----14-14 \---16-16-16-16 --16-16-16-|
 D|-(12)---------(12)---------------------------------|
 A|---------------------------(15)----------(15)------|
 E|---------------------------------------------------|

Dm Em/c
 
 e|--13-----------13-----------15-15-15-----/15-15-15-|
 B|--15-15-15-15--15-15-15 \---17-17-17-17 --17-17-17-|
 G|-----14-14-14-----14-14 \---16-16-16-16 --16-16-16-|
 D|-(12)---------(12)---------------------------------|
 A|---------------------------(15)----------(15)------|
 E|---------------------------------------------------|

Dm Em/c
 
 e|--13-----------13-----------15-15-15-----/15-15-15-|
 B|--15-15-15-15--15-15-15 \---17-17-17-17 --17-17-17-|
 G|-----14-14-14-----14-14 \---16-16-16-16 --16-16-16-|
 D|-(12)---------(12)---------------------------------|
 A|---------------------------(15)----------(15)------|
 E|---------------------------------------------------|

[Am7] [D5]  
 
 e|----15-12-12--12h15-12-12 \-----5------------------|
 B|----13-13-13--13----13-13 \-----3------------------|
 G|----14-14-14--14----14-14 \-----2------------------|
 D|--------------------------------0------------------|
 A|---(12)------(12)----------------------------------|
 E|---------------------------------------------------|

Any probs let me know @ r.denley@hotmail.com

Important: The song above is NOT stored on the Chordie server. The original song is hosted at www.guitaretab.com. Chordie works as a search engine and provides on-the-fly formatting. Chordie does not index songs against artists'/composers' will. To remove this song please click here.

Text color:
Chord color:
Chord grids: 
Font size:    
Page size: 

Am7 D5
Rate #4 of 6 versions

Login - add to songbook

SHARE PAGE  




You need to log in to post comments