Guitar Tabs, Chords and Lyrics
Server problems seems to be fixed. Chordie has been experiencing problems with songs disappearing. These issues now seems to be fixed, but still verifying the fix. If you find anything strange, please email admin@chordie.com.


Factory of Faith  Red Hot Chili Peppers

Red Hot Chili Peppers - Factory of Faith - acoustic
Intro and mainriff during the verses:
[Dm] [F] [Bb] [C]  
 
 e|-1-1-----1------------0--|
 B|-3-3-1-1-3----1---1---1--|
 G|-2-2-2-2-3------0---0-0--|
 D|-0-0-3-3-3--2------------|
 A|-----3-3-1--3------------|
 E|-----1-1-----------------|

Verse 1
[Dm]All my [F]life I [Bb]was [C]swinging for the fence
l was looking for the triple never playing good defense
We were gunnin' for the glitter every hot and heavy hitter
She was never really there so I couldn't really get her
Pre-Chorus 1
[Dm]Factu[F]ally[Bb] I-I'm[C] just a piece of it
Factually I-the very least of it
Verse 2
[Dm]Piece of [F]work [Bb]I was [C]really quite a jerk
Keeping score is such a bore a busy mind could go berserk
Feast on this I was fishing for a hook
So I took a littte trip when I opened up the book
Pre-Chorus 2
[Dm]Factua[F]lly l[Bb] - l'm[C] just a piece of it
Factually l - the very least of it
Factually l - it's just the medicine
Makes you wanna cry - why don't they let us in
Chorus (strum Chords)
[Dm]Be my [Bb]wife I think [C]you're right that we should mate
Tell your friends l've got a factory of faith
Late last night I had a dream that it was great
Tell your friends I've got a factory of faith
l've got a factory of....
2 x mainriff
Verse 3
[Dm]Crack your [F]whip,[Bb] she's confe[C]ssing from the hip
She was good at getting there But not as much for round trip
All this time l was searching for a dream
l was slippin' in and out of every other sex machine
Pre-Chorus 2 and chorus again
Bridge: (sing: "bow,bow,bow,bow", or "om,om,om,om" hihihi ;-)
3 times:
[A] [G] [A] [G] [A] [G] [Db] [C] [Dm] [C] [Bb]  
 
 e|-----------------------------------------|
 B|-----------------------------------------|
 G|---------------------6---5---7---5---3---|
 D|---7---5---7-5-7-5--6---5---7---5---3----|
 A|--7---5---7--5-7-5-4---3---5---3---1-----|
 E|-5---3---5---3-5-3-----------------------|

then 1 time:
[A] [G] [A] [G] [A] [G] [Db] [C] [Dm] [C] [Bb] [Bb] [A] [A] [A] [A] [A] [A] [A] [A]  
 
 e|---------------------------------------------------------0-|
 B|---------------------------------------------------------2-|
 G|---2---0---2-0-2-0---6---5---7---5---3---3-2-2-2-2-2-2-2-2-|
 D|--2---0---2--0-2-0--6---5---7---5---3---3--2-2-2-2-2-2-2-2-|
 A|-0-------0---x-0-x-4---3---5---3---1---1---0-0-0-0-0-0-0-0-|
 E|-----3-------3---3-----------------------------------------|

Chorus (strum Chords)
[Dm]Be my [Bb]wife I think [C]you're right that we should mate
Tell your friends l've got a factory of faith
Late last night I had a dream that it was great
Tell your friends I've got a factory of faith
l've got a factory of....faith.....and love
2 x mainriff, then end with Dm

Important: The song above is NOT stored on the Chordie server. The original song is hosted at www.guitaretab.com. Chordie works as a search engine and provides on-the-fly formatting. Chordie does not index songs against artists'/composers' will. To remove this song please click here.

Text color:
Chord color:
Chord grids: 
Font size:    
Page size: 

A Bb C Db Dm F G
Rate #1 of 2 versions

Login - add to songbook

SHARE PAGE  



You need to log in to post comments