Guitar Tabs, Chords and Lyrics
Major upgrade!! After one year development the new version of Chordie is now online! Please give feedback.


Breaking the Girl  Red Hot Chili Peppers

 
 -------------------------------------------------------------------------------

BREAKING THE GIRL - Red Hot Chili Peppers
 
 -------------------------------------------------------------------------------

Tabbed by: kasiajonas
Email: popolsku8@gmail.com
Tuning: Standard
Chords used:
[G#] [G#69#11] [G#m] [G#6sus4] [G#M9] [B] [F#] [E] [F#/A#] [C#m] [D#] [D#/C#] [D#/B] [D#/A#] [E7] [D#7]  
 
 e|-4-----10----4-----4-----3---7-2--0---x----4--6----3----3-----6---0---3---|
 B|-4-----11----4-----6-----4---7-2--0---x----5--8----4----4-----8---0---2---|
 G|-5-----10----4-----6-----3---8-3--1---3----6--8----3----3-----8---1---0---|
 D|-6-----10----6-----6-----5---9-4--2---4----6--8----5----5-----8---0---1---|
 A|-6-----11----6-----4-----3---9-4--2---4----4--6----4----3-----6---2---x---|
 E|-4-----x-----4-----4-----4---7-2--0---6----x--x----x----x-----6---0---x---|

or put capo on 4th and play this instead:
[E] [E69#11] [Em] [E6sus4] [EM9] [G] [D] [C] [D/F#] [Am] [B] [B/A] [B/G] [B/F#] [C7] [B7]  
 
 e|-0---6----0----0-----2--3-2-0--3---0--7--7---2---7---3--2--|
 B|-0---7----0----2-----0--3-3-1--3---1--7--7---4---4---5--0--|
 G|-1---6----0----2-----1--0-2-0--2---2--8--8---4---4---3--2--|
 D|-2---6----2----2-----1--0-0-2--0---2--9--7---5---4---5--1--|
 A|-2---7----2----0-----2--2-x-3--0---0--9--x---x---x---3--2--|
 E|-0---x----0----0-----0--3-x-x--2---x--7--x---x---x---x--x--|

[G#] [G#69#11] [G#m] [G#6sus4] [G#M9] [G#]  
I Am a [G#69#11]man[G#m]
[G#6sus4]Cut from the [G#M9]know[G#]
Rarely do [G#69#11]friends[G#m]
[G#6sus4]Come and then [G#M9]go[G#]
She was a [G#69#11]girl[G#m]
[G#6sus4]Soft but es[G#M9]trang[G#]ed
We were the [G#69#11]two[G#m]
Our [G#6sus4]lives rear[G#M9]ranged[G#]
[B] Feeling so [F#]good that [G#m]day
[B] A feeling of [F#]love that [E]day
[G#m]Twisting and [F#/A#]turning
Your [B]feelings are [C#m]burning
You're [D#]breaking the [D#/C#]girl[D#/B] [D#/A#]
[G#m]She [F#/A#]meant [B]you [C#m]no [E]harm
[G#m]Think you're so [F#/A#]clever
But [B]now you must [C#m]sever
You're [D#]breaking the [D#/C#]girl[D#/B] [D#/A#]
[G#m]He [F#/A#]loves [B]no [C#m]one [E]else
[E7] [D#7]  
Raised by my [G#69#11]dad[G#m]
[G#6sus4]Girl of the [G#M9]day[G#]
He was my [G#69#11]man[G#m]
[G#6sus4]That was the [G#M9]way[G#]
She was the [G#69#11]girl[G#m]
[G#6sus4]Left a[G#M9]lone[G#]
Feeling the [G#69#11]need[G#m]
To [G#6sus4]make me her [G#M9]home[G#]
[B] I don't know [F#]what when or [G#m]why
[B] The twilight of [F#]love had ar[E]rived
[G#m]Twisting and [F#/A#]turning
Your [B]feelings are [C#m]burning
You're [D#]breaking the [D#/C#]girl[D#/B] [D#/A#]
[G#m]She [F#/A#]meant [B]you [C#m]no [E]harm
[G#m]Think you're so [F#/A#]clever
But [B]now you must [C#m]sever
You're [D#]breaking the [D#/C#]girl[D#/B] [D#/A#]
[G#m]He [F#/A#]loves [B]no [C#m]one [E]else
G#m B x8
[G#m]Twisting and [F#/A#]turning
Your [B]feelings are [C#m]burning
You're [D#]breaking the [D#/C#]girl[D#/B] [D#/A#]
[G#m]She [F#/A#]meant [B]you [C#m]no [E]harm
[G#m]Think you're so [F#/A#]clever
But [B]now you must [C#m]sever
You're [D#]breaking the [D#/C#]girl[D#/B] [D#/A#]
[G#m]He [F#/A#]loves [B]no [C#m]one [E]else
C#m F#/A# B C#m E x6

Important: The song above is NOT stored on the Chordie server. The original song is hosted at www.guitaretab.com. Chordie works as a search engine and provides on-the-fly formatting. Chordie does not index songs against artists'/composers' will. To remove this song please click here.

Text color:
Chord color:
Chord grids: 
Font size:    
Page size: 

Am B B/F# B/G B7 C C#m C7 D D# D#/A# D#/B D#/C# D#7 D/F# E E6sus4 E7 Em9 Em F# F#/A# G G# G#6sus4 G#m9 G#m
Rate #1 of 11 versions

Login - add to songbook

SHARE PAGE  



You need to log in to post comments