Guitar Tabs, Chords and Lyrics
Server problems seems to be fixed. Chordie has been experiencing problems with songs disappearing. These issues now seems to be fixed, but still verifying the fix. If you find anything strange, please email admin@chordie.com.


Stadium Arcadium  Red Hot Chili Peppers

Intro:
 
 |------------------------------------------------------------|
 |-------------------------------------------------2----------| Repeat x 2
 |------------------2-----------2---------2------2------------|
 |-------------4------------4----------2-------2--------------|
 |--------4-------------4-----------0-------------------------|
 |---2--------------------------------------------------------|

[A] [E]  
 
 -------0--|
 -2-----0--|
 -2-----1--|
 -2-----2--|
 -0-----2--|
 -------0--|

Verse (Main Riff):
 
 |------------------------------------------------------------|
 |-------------------------------------------------2----------| Repeat x 2
 |------------------2-----------2---------2------2------------|
 |-------------4------------4----------2-------2--------------|
 |--------4-------------4-----------0-------------------------|
 |---2--------------------------------------------------------|

[A] [E]  
 
 -------0--|
 -2-----0--|
 -2-----1--|
 -2-----2--|
 -0-----2--|
 -------0--|
 |--------------------------------------------------------------|
 |-------------------------------------------------2----2h3-2---|
 |------------------2-----------2---------2------2------------2-|
 |-------------4------------4----------2-------2----------------|
 |--------4-------------4-----------0---------------------------|
 |---2----------------------------------------------------------|
 |------------------------------------------------------------|
 |-------------------------------------------------2----------|
 |------------------2-----------2---------2------2------------|
 |-------------4------------4----------2-------2--------------|
 |--------4-------------4-----------0-------------------------|
 |---2--------------------------------------------------------|

[A] [E]  
 
 -------0--|
 -2-----0--|
 -2-----1--|
 -2-----2--|
 -0-----2--|
 -------0--|

Chorus:
The S[Bm]tadium Arcadium,
A mir[D]ror to the Moon,(A mir[D]ror to the moon)
Well Im Fo[A]rming and Im War[A]ming, (to you)
A St[E]ate of the art until the Clo[E]uds co[E]me Cr[E]ash[E]ing
S[Bm]tranger things have happened both,
B[D]efore and after n[D]oon, (before and afternoon)
And Im fo[A]rming and Im wa[A]rming, (to you)
And Push[E]ing myself and [E]No [E]I do[E]nt m[E]ind as[E]kin n[E7]ow
Main Riff (Verse)
Chorus:
The S[Bm]tadium Arcadium,
A mir[D]ror to the Moon,(A mir[D]ror to the moon)
Well Im Fo[A]rming and Im War[A]ming, (to you)
A St[E]ate of the art until the Clo[E]uds co[E]me Cr[E]ash[E]ing
S[Bm]tranger things have happened both,
B[D]efore and after n[D]oon, (before and afternoon)
And Im fo[A]rming and Im wa[A]rming, (to you)
And Push[E]ing myself and [E]No [E]I do[E]nt m[E]ind as[E]kin n[E7]ow
Main Riff (Verse):
Chorus:
The S[Bm]tadium Arcadium,
A mir[D]ror to the Moon,(A mir[D]ror to the moon)
Well Im Fo[A]rming and Im War[A]ming, (to you)
A St[E]ate of the art until the Clo[E]uds co[E]me Cr[E]ash[E]ing
S[Bm]tranger things have happened both,
B[D]efore and after n[D]oon, (before and afternoon)
And Im fo[A]rming and Im wa[A]rming, (to you)
And Push[E]ing myself and [E]No [E]I do[E]nt m[E]ind as[E]kin..
The Sta[Bm]dium Arcadium,
A mirr[D]or to the Moon,(A m[D]irror to the moon)
Well Im For[A]ming and Im Warmi[A]ng,
St[E]ate of the art until the Clo[E]uds co[E]me Cr[E]ash[E]ing
[Bm]Stranger things have happened both, |
D | Strum Downwards
 
 Before and after noon, (before and afternoon) |------Quite Fast

A E | And Stop At Last
And Im forming and Im warming ..to you. | Warming, Strum
Once At Last "you"

Important: The song above is NOT stored on the Chordie server. The original song is hosted at www.guitaretab.com. Chordie works as a search engine and provides on-the-fly formatting. Chordie does not index songs against artists'/composers' will. To remove this song please click here.

Text color:
Chord color:
Chord grids: 
Font size:    
Page size: 

A Bm D E E7
Rate #0 of 5 versions

Login - add to songbook

SHARE PAGE  



You need to log in to post comments