Guitar Tabs, Chords and Lyrics
Server problems seems to be fixed. Chordie has been experiencing problems with songs disappearing. These issues now seems to be fixed, but still verifying the fix. If you find anything strange, please email admin@chordie.com.


One Hot Minute  Red Hot Chili Peppers

One Hot Minute [1995]
NOTE: THIS IS NOT MY WORK, BUT RATHER VARIOUS TABS COMPILED.
IF AUTHOR IS NOT STATED, IT WAS TABBED BY: ?Unregistered?
Vox - Anthony Keidis
Guitar - Dave Navarro
Bass - Michael Balzary [Flea]
Drums - Chad Smith
1. Warped
2. Aeroplane
3. Deep Kick
4. My Friends
5. Coffee Shop
6. Pea
7. One Big Mob
8. Walkabout
9. Tearjerker
10. One Hot Minute
11. Falling Into Grace
12. Shallow Be Thy Game
13. Transcending
1.Warped
(Tabbed by Alex V. [redefine78@yaboo.com])
This has got to be one of my fave Chili songs of all time
but it's nowhere on the net. So here ya go!
MAIN RIFF [verse]
 
 E-------------------------------------|
 B-------------------------------------|
 G-------------------------------------|
 D-------------------------------------|
 A----5h-7---5h-7---5h-7---5h-7--0-----|
 E--0------0------0------0---------5b--|
 slight p.m. - - - - - - - - - -|

CHORUS
 
 E----------------------|
 B---3-----3-----3------|
 G---0-----2-----0------|[Repeat as needed]
 D---0-----0-----0------|
 A----------------------|
 E----------------------|

"... all the way..."
[This is used in second half of the 2nd chorus
over the 3 chords used before]
 
 E------------------|----------------------|
 B------------------|----------------------|
 G---12---11--9-----|---12--11----7---5----|
 D------------------|----------------------|
 A---10---9---7-----|---10---9----5---3----|
 E------------------|----------------------|
 E--------------------|--------------------------|
 B--------------------|--------------------------|
 G---12---11--14------|--17--16--14--12--11-9----| [2x]
 D--------------------|--------------------------| [2nd time substitute
 A---10---9---12------|--15--14--12--10--9--7----| last bar w/ the one
 E--------------------|--------------------------| below]
 E--------------------------|
 B--------------------------|
 G--17--17--17--17----------| [using delay]
 D--------------------------|
 A--15--15--15--15----------|
 E--------------------------|

SOLO
Guitar 1 [set delay at 352 milliseconds]
 
 E-------------|-----------|-----------|----------------|
 B-------------|--20\sl----|--19-------|----------------|
 G---17\sl-----|-----------|--17-------|--------17-17b--|
 D-------------|-----------|-----------|--xxxx----------|
 A-------------|-----------|-----------|--xxxx----------|
 E-------------|-----------|-----------|----------------|
 E-----------------------|
 B-----------------------|
 G--17-17-17-17----------| [Now turn delay off]
 D-----------------------|
 A--15-15-15-15----------|
 E-----------------------|
 E--------------------------------------------------|
 B--------------------------------------------------|
 G--17-19-19-19-19-19-19-19-19-21-21-21-21-21-21-21-|
 D--------------------------------------------------|
 A--15-17-17-17-17-17-17-17-17-19-19-19-19-19-19-19-|
 E--------------------------------------------------|
 E--------------------------------------------------|
 B--------------------------------------------------|
 G--17-17-17-19-19-19-16-16-16-17-17-17-14-14-14-14-|
 D--------------------------------------------------|
 A--15-15-15-17-17-17-14-14-14-15-15-15-12-12-12-12-|
 E--------------------------------------------------|
 E-------------------|
 B-------------------|
 G--12-12-12-12------|[use delay for this bar]
 D-------------------|
 A--10-10-10-10------|
 E-------------------|
 E---------------------------------------------------|
 B--20-20-20-20-20-20----20-19-19-19-19--------------|
 G--------------------19-----------------17-17-17-17-|
 D---------------------------------------------------|
 A---------------------------------------------------|
 E---------------------------------------------------|
 E----------------------------------------------------|
 B--19-19-19-19-19------------------------------------|
 G-----------------17-17-17-17-17-17-17-17-17-17-17---|
 D----------------------------------------------------|
 A----------------------------------------------------|
 E----------------------------------------------------|
 E---------------------------------------------------|
 B---------------------------------------------------|
 G--18-18-18-18-18-18--------------------------------|
 D--------------------19-19-19-19-19-19-19-19-19-19--|
 A---------------------------------------------------|
 E---------------------------------------------------|
 E---------------------------------------------|
 B---------------------------------------------|
 G--19-19-19-19-19-19-19-19-19-19-19-19-19-----|
 D---------------------------------------------|
 A---------------------------------------------|
 E---------------------------------------------|

Guitar 2 [under solo]
[play entire section 4x] 
 
 E-----------------------------------|
 B-----------------------------------|
 G--------------------------------5b-|[3x]
 D---7-7-7-7-7-7-7-7-7-7-7-7-7-7-----|
 A---0-0-0-0-0-0-0-0-0-0-0-0-0-0-----|
 E-----------------------------------|
 p.m. - - - - - - - - - - - - - -|
 E------------------------------------|
 B--------------------8-8-7-7-8-8-7-7-|
 G--------------------5-5-5-5-5-5-5-5-|
 D---7-7-7-7-7-7-7-7------------------|
 A---0-0-0-0-0-0-0-0------------------|
 E------------------------------------| [end of section]
 p.m. - - - - - - - -|
 E----------------------|
 B---3-----3-----3------|
 G---2-----2-----1------|
 D---0-----0-----0------|
 A----------------------|
 E----------------------|
 E-------------------------------------|--------------------------------|
 B-------------------------------------|--------------------------------|
 G----------------------------------7--|---------------------------7--7-|
 D----------------------------------5--|---------------------------5--5-|
 A----5h-7---5h-7---5h-7---5h-7--0--0--|----5h-7---5h-7---5h-7--0--0--0-|
 E--0------0------0------0-------------|--0------0------0---------------|
 slight p.m. - - - - - - - - - - -| - - - - - - - - - - - |
 E---------------------------|--------------------|
 B---------------------------|--------------------|
 G--------------------7-7-7--|-----------7-7-7-7--|
 D--------------------5-5-5--|-----------5-5-5-5--|
 A----5h-7---5h-7--0--0-0-0--|---5h-7-0--0-0-0-0--|
 E--0------0-----------------|--0-----------------|

slight p.m. - - - | - - |
Section after last chorus
 
 E-------------------------------------------------------|
 B--8--x-8--x-8-x-8--x-8-8-- >

Q E S S S S S S S S S S E E E E E E E E
 
 ---------------------------------|--------------------------|
 ---------------------------------|--------------------------|
 --11----11--11-9---9-9-9-9-9-9-x-|--3--3--3--3--3--3--3--3--|
 --11----11--11-9---9-9-9-9-9-9-x-|--2--2--2--2--2--2--2--2--|
 ---9-----9---9-7---7-7-7-7-7-7-x-|--3--3--3--3--3--3--3--3--|
 ---------------------------------|--------------------------|

> > > > Rhy. Fill 1
S S E E E E E E E E E H.
 
 ---------------------------|--12---------------------------|
 ---------------------------|--12---------------------------|
 --3-5-5--5--5--5--5--5--x--|-------------------------------|
 --2-4-4--4--4--4--4--4--x--|-------------------------------|
 --3-5-5--5--5--5--5--5--x--|-----------------7~------------|
 ---------------------------|--------------0----------------|

E E S S S S H E E S S S S H
 
 ------------------------------|------------------------------|
 ------------------------------|------------------------------|
 --------6brb-L-L-L-6b~--------|--------6brb-L-L-L-6b~--------|
 ------------------------------|------------------------------|
 ------------------------------|------------------------------|
 --0--0------------------------|--0--0------------------------|

E E S S S S H E S S E S S E S S S S S S
 
 ------------------------------|-------------------------------|
 ------------------------------|-------------------------------|
 --------6brb-L-L-L-6b~--------|--5--5-5-5--5-5-5--5-5-5-7-7-9-|
 ------------------------------|-------------------------------|
 ------------------------------|--3--3-3-3--3-3-3--3-3-3-5-5-7-|
 --0--0------------------------|-------------------------------|
 |--3--| |--3--|

E S S E S S E E E E E E
 
 ----------------8--8--8--8--8--8--|
 ----------------8--8--8--8--8--8--|
 --6--6-6-6--6-6-------------------|
 ----------------------------------|
 --4--4-4-4--4-4-------------------|
 --5--5-5-5--5-5-------------------|

Fill 1 w/ wah-wah End
[E] [E] [E] [E] [E] [E] [E] [E]  
 
 -----------------------------------------------------------|
 -----------------------------------------------------------|
 -------------------------6b--6pb--6pb--6pb--6pb--6pb--6pb--|
 -----------------------------------------------------------|
 -----------------------------------------------------------|
 -----------------------------------------------------------|

Fill 1 End
[E] [E] [E] [E] [E] [E] [E] [E]  
 
 -------------------------------------------------|
 -------------------------------------------------|
 ---------------6b--6pb--6pb--6pb--6pb--6pb--6pb--|
 -------------------------------------------------|
 -------------------------------------------------|
 -------------------------------------------------|

Fill 1 End
[E] [E] [E] [E] [E] [E] [E] [E]  
 
 -------------------------------------------------|
 -------------------------------------------------|
 ---------------6b--6pb--6pb--6pb--6pb--6pb--6pb--|
 -------------------------------------------------|
 -------------------------------------------------|
 -------------------------------------------------|

Fill 1 End
[E] [E] [E] [E] [E] [E] [E] [E]  
 
 -------------------------------------------------|
 -------------------------------------------------|
 ---------------6b--6pb--6pb--6pb--6pb--6pb--6pb--|
 -------------------------------------------------|
 -------------------------------------------------|
 -------------------------------------------------|

E S S E S S E S S S S S S E S S E S S E S S S S S S
 
 -------------------------------|---------------------------------|
 -------------------------------|---------------------------------|
 --5--5-5-5--5-5-5--5-5-5-7-7-9-|--6--6-6-6--6-6-6--6-6-6g9-8-7-6-|
 -------------------------------|---------------------------------|
 --3--3-3-3--3-3-3--3-3-3-5-5-7-|--4--4-4-4--4-4-4--4-4-4g7-6-5-4-|
 -------------------------------|--5--5-5-5--5-5-5--5-5-----------|

E S S E S S E S S S S S S W
 
 -------------------------------|-------------------|
 -------------------------------|-------------------|
 --5--5-5-5--5-5-5--5-5-5-7-7-9-|--6----------------|
 -------------------------------|-------------------|
 --3--3-3-3--3-3-3--3-3-3-5-5-7-|--4----------------|
 -------------------------------|--5----------------|

Rhy. Fig.2 End
Q E S S S S S S S S S S Q E S S S S S S S S E
 
 --------------------------------------|-------------------------------|
 --------------------------------------|-------------------------------|
 --11---------11--11-9---9-9-9-9-9-9-x-|-------------------------------|
 --11---------11--11-9---9-9-9-9-9-9-x-|--9----9--x-7---9-11-x-7-9-4---|
 ---9----------9---9-7---7-7-7-7-7-7-x-|--9----9--x-7------------------|
 --------------------------------------|--7----7--x-5---7--9-x-5-7-2---|

Rhy. Fig.2 End
Q E S S S S S S S S S S Q E S S S S S S S S E
 
 --------------------------------------|-------------------------------|
 --------------------------------------|-------------------------------|
 --11---------11--11-9---9-9-9-9-9-9-x-|-------------------------------|
 --11---------11--11-9---9-9-9-9-9-9-x-|--9----9--x-7---9-11-x-7-9-4---|
 ---9----------9---9-7---7-7-7-7-7-7-x-|--9----9--x-7------------------|
 --------------------------------------|--7----7--x-5---7--9-x-5-7-2---|

Rhy. Fig.2 End
Q E S S S S S S S S S S Q E S S S S S S S S E
 
 --------------------------------------|-------------------------------|
 --------------------------------------|-------------------------------|
 --11---------11--11-9---9-9-9-9-9-9-x-|-------------------------------|
 --11---------11--11-9---9-9-9-9-9-9-x-|--9----9--x-7---9-11-x-7-9-4---|
 ---9----------9---9-7---7-7-7-7-7-7-x-|--9----9--x-7------------------|
 --------------------------------------|--7----7--x-5---7--9-x-5-7-2---|

> > > >
Q E S S S S S S S S S S E E E E E E E E
 
 ---------------------------------|--------------------------|
 ---------------------------------|--------------------------|
 --11----11--11-9---9-9-9-9-9-9-x-|--3--3--3--3--3--3--3--3--|
 --11----11--11-9---9-9-9-9-9-9-x-|--2--2--2--2--2--2--2--2--|
 ---9-----9---9-7---7-7-7-7-7-7-x-|--3--3--3--3--3--3--3--3--|
 ---------------------------------|--------------------------|

> > > >
S S E E E E E E E H E. S S E S
 
 ---------------------------|-------------------------|
 ---------------------------|-------------------------|
 --3-5-5--5--5--5--5--5--x--|---------------7---12--7-|
 --2-4-4--4--4--4--4--4--x--|---------------7---12--7-|
 --3-5-5--5--5--5--5--5--x--|---------------5---10--5-|
 ---------------------------|--0--------L-------------|

Rhy. Fig.3 End Rhy. Fig.3 End
Q Q E. S S E S Q Q E. S S E S
 
 ----------------------------------|----------------------------------|
 ----------------------------------|----------------------------------|
 --9b---------L----L---7---12--7---|--9b---------L----L---7---12--7---|
 --9b---------L----L---7---12--7---|--9b---------L----L---7---12--7---|
 --7b---------L----L---5---10--5---|--7b---------L----L---5---10--5---|
 ----------------------------------|----------------------------------|

Rhy. Fig.3 End Rhy. Fig.3 End
Q Q E. S S E S Q Q E. S S E S
 
 ----------------------------------|----------------------------------|
 ----------------------------------|----------------------------------|
 --9b---------L----L---7---12--7---|--9b---------L----L---7---12--7---|
 --9b---------L----L---7---12--7---|--9b---------L----L---7---12--7---|
 --7b---------L----L---5---10--5---|--7b---------L----L---5---10--5---|
 ----------------------------------|----------------------------------|

Rhy. Fig.3 End Rhy. Fig.3 End
Q Q E. S S E S Q Q E. S S E S
 
 ----------------------------------|----------------------------------|
 ----------------------------------|----------------------------------|
 --9b---------L----L---7---12--7---|--9b---------L----L---7---12--7---|
 --9b---------L----L---7---12--7---|--9b---------L----L---7---12--7---|
 --7b---------L----L---5---10--5---|--7b---------L----L---5---10--5---|
 ----------------------------------|----------------------------------|

Rhy. Fill 2 > > > >
Q Q E. S S S S S E E E E E E E E
 
 ----------------------------------|--------------------------|
 ----------------------------------|--------------------------|
 --9b----------L----L---7---12-x-x-|--3--3--3--3--3--3--3--3--|
 --9b----------L----L---7---12-x-x-|--2--2--2--2--2--2--2--2--|
 --7b----------L----L---5---10-x-x-|--3--3--3--3--3--3--3--3--|
 ----------------------------------|--------------------------|

> > > > > > > >
 
 |--3--| |--3--|

E E E E E E E E E E W E S S Q Q. E
 
 --------------8--8--8--8--8--8--|-------------------|--------------------------|
 --------------8--8--8--8--8--8--|-------------------|--------------------------|
 --5--5--5--5--------------------|-------------------|--------------------------|
 --4--4--4--4--------------------|-------------------|--------------------------|
 --5--5--5--5--------------------|-------------------|-----5h-7~-L----L------5--|
 --------------------------------|-------------------|--------------------------|

E E Q S S E E E W E E H.
 
 -----------------------------|-------------------|---------------------|
 -----------------------------|-------------------|---------------------|
 -----------------------------|-------------------|--------5------------|
 -----------------------------|-------------------|-----5--L------------|
 --4--5--4----4br-L-L~--L--4--|--2----------------|---------------------|
 -----------------------------|-------------------|---------------------|

E E Q Q. E E E E. S E E S S E
 
 -------------------------|-------------------------------|
 ----------2----L---------|-------------------------------|
 -------2--L----L---------|-------------------------------|
 -------------------------|-------------------------------|
 --2g4-----L----L------4--|--11--11--11---11-9--9--L-7-9--|
 -------------------------|-------------------------------|

E. S S S E S E. Q S S E E. S Q. S S
 
 --------------------------|-----------------------------|
 --------------------------|-----------------------------|
 --------------------------|----7----6---9-L-------------|
 ------4-6-6-7--L-9---L----|--L---9----------------------|
 --5-----------------------|-------------7-L------11h-12-|
 --------------------------|-----------------------------|

let ring
Q E. S E. S E E E E E E E E E E
 
 ------------------------------|--------------------------------|
 ------------------------------|-----------------3-----------L--|
 ------------------------------|--------------5-----L--5--L--5--|
 ------------------------------|-----------5-----------L--5--L--|
 --11~----L---11-9---9-11--11--|--3--------------------------L--|
 ------------------------------|--------------------------------|

Q E. S E. S E S S E S S E S S S E. S E.
 
 ----------------------------|-------------------------------|
 -----------4h-5---7-L--7h-9-|--L-----------------7----------|
 --6----L---6----------------|-----7h-9-L--9p-7-L-----7h-9---|
 ----------------------------|-------------------------------|
 --4----L--------------------|-------------------------------|
 ----------------------------|-------------------------------|

Q. S S E S S E E H E E S E. H. S E.
 
 --------------------------------|-----------------------|---------------------|
 ---------10-10p-9--9p-7-(7)--5--|--5--------L-----------|---------------------|
 --L-----------------------------|--6--------L--6--L-6---|--4------------L-4---|
 --------------------------------|-----------------------|---------------------|
 --------------------------------|-----------------------|---------------------|
 --------------------------------|-----------------------|---------------------|

let ring with distortion
E Q E Q E E W H. S S S S
 
 ------------------------------|-------------------|--------------------------|
 ------------------------------|-------------------|--------------------------|
 ----------------5--L----5--5--|--6----------------|--5---------------5-7-7-9-|
 -----------5-------L----------|-------------------|--------------------------|
 --3----------------L----3--3--|--4----------------|--3---------------3-5-5-7-|
 ------------------------------|-------------------|--------------------------|

Rhy. Fig.2
W Q E S S S S S S S S S S
 
 -------------------|--------------------------------------|
 -------------------|--------------------------------------|
 --6----------------|--11---------11--11-9---9-9-9-9-9-9-x-|
 -------------------|--11---------11--11-9---9-9-9-9-9-9-x-|
 --4----------------|---9----------9---9-7---7-7-7-7-7-7-x-|
 --5----------------|--------------------------------------|

End Rhy. Fig.2
Q E S S S S S S S S E Q E S S S S S S S S S S
 
 -------------------------------|--------------------------------------|
 -------------------------------|--------------------------------------|
 -------------------------------|--11---------11--11-9---9-9-9-9-9-9-x-|
 --9----9--x-7---9-11-x-7-9-4---|--11---------11--11-9---9-9-9-9-9-9-x-|
 --9----9--x-7------------------|---9----------9---9-7---7-7-7-7-7-7-x-|
 --7----7--x-5---7--9-x-5-7-2---|--------------------------------------|

End Rhy. Fig.2
Q E S S S S S S S S E Q E S S S S S S S S S S
 
 -------------------------------|--------------------------------------|
 -------------------------------|--------------------------------------|
 -------------------------------|--11---------11--11-9---9-9-9-9-9-9-x-|
 --9----9--x-7---9-11-x-7-9-4---|--11---------11--11-9---9-9-9-9-9-9-x-|
 --9----9--x-7------------------|---9----------9---9-7---7-7-7-7-7-7-x-|
 --7----7--x-5---7--9-x-5-7-2---|--------------------------------------|

Q E S S S S S S S S [End]E Q E S S S S S S S S S S
 
 -------------------------------|---------------------------------|
 -------------------------------|---------------------------------|
 -------------------------------|--11----11--11-9---9-9-9-9-9-9-x-|
 --9----9--x-7---9-11-x-7-9-4---|--11----11--11-9---9-9-9-9-9-9-x-|
 --9----9--x-7------------------|---9-----9---9-7---7-7-7-7-7-7-x-|
 --7----7--x-5---7--9-x-5-7-2---|---------------------------------|

Fill 2 Fill 2
Q Q Q Q Q Q Q Q
 
 ---------------------------|---------------------------|
 ---------------------------|---------------------------|
 --3~-----3~----3~----3~----|--3~-----3~----3~----3~----|
 ---------------------------|---------------------------|
 ---------------------------|---------------------------|
 ---------------------------|---------------------------|

Fill 2 Fill 2
Q Q Q Q Q Q Q Q
 
 ---------------------------|---------------------------|
 ---------------------------|---------------------------|
 --3~-----3~----3~----3~----|--3~-----3~----3~----3~----|
 ---------------------------|---------------------------|
 ---------------------------|---------------------------|
 ---------------------------|---------------------------|

Fill 2 Fill 2
Q Q Q Q Q Q Q Q
 
 ---------------------------|---------------------------|
 ---------------------------|---------------------------|
 --3~-----3~----3~----3~----|--3~-----3~----3~----3~----|
 ---------------------------|---------------------------|
 ---------------------------|---------------------------|
 ---------------------------|---------------------------|

Fill 2 Fill 2
Q Q Q Q Q Q Q Q
 
 ---------------------------|---------------------------|
 ---------------------------|---------------------------|
 --3~-----3~----3~----3~----|--3~-----3~----3~----3~----|
 ---------------------------|---------------------------|
 ---------------------------|---------------------------|
 ---------------------------|---------------------------|

Fill 2 Fill 2
Q Q Q Q Q Q Q Q
 
 ---------------------------|---------------------------|
 ---------------------------|---------------------------|
 --3~-----3~----3~----3~----|--3~-----3~----3~----3~----|
 ---------------------------|---------------------------|
 ---------------------------|---------------------------|
 ---------------------------|---------------------------|

Fill 2 Fill 2
Q Q Q Q Q Q Q Q
 
 ---------------------------|---------------------------|
 ---------------------------|---------------------------|
 --3~-----3~----3~----3~----|--3~-----3~----3~----3~----|
 ---------------------------|---------------------------|
 ---------------------------|---------------------------|
 ---------------------------|---------------------------|

Fill 2 Fill 2
Q Q Q Q Q Q Q Q
 
 ---------------------------|---------------------------|
 ---------------------------|---------------------------|
 --3~-----3~----3~----3~----|--3~-----3~----3~----3~----|
 ---------------------------|---------------------------|
 ---------------------------|---------------------------|
 ---------------------------|---------------------------|

Fill 2 w/ fdbk. & vib. bar effects ad Lib.
Q Q Q Q W
 
 ---------------------------|--------------------------------------||
 ---------------------------|--------------------------------------||
 --3~-----3~----3~----3~----|--------------------------------------||
 ---------------------------|--------------------------------------||
 ---------------------------|--2-----------------------------------||
 ---------------------------|--0-----------------------------------||

11. Falling Into Grace
intro, talk-box
 
 |----------------|----------------|----------------|----------------|
 |----------------|----------------|----------------|----------------|
 |----------------|----------------|----------------|----------------|
 |----------------|----------------|----------------|-----4-(4)b-----|
 |----------------|-----3-(3)b-----|----------------|----------------|
 |-2----------0-2-|----------------|-2----------0-2-|----------------|

verse, with talk-box
[-1]  
 
 |----------------|----------------|----------------|----------------|
 |----------------|----------------|----------------|----------------|
 |----------------|----------------|----------------|----------------|
 |----------------|----------------|----------------|----------------|
 |----------------|-----3-(3)b-----|----------------|----------------|
 |-2----------0-2-|----------------|-2----------0-2-|-(2)----0\------|

fill, start second verse with this
[-1]  
 
 |----------------|--------------|----------------|---------------|
 |----------------|--------------|----------------|---------------|
 |----------------|------4b------|----------------|---------------|
 |----------------|--------------|----------------|---------------|
 |----------------|--------------|----------------|---------------|
 |----------------|--------------|-2----------0-2-|-(2)----0\-----|

chorus, clean
1.,2.,3. endings 4. ending
 
 |----------------|-----------------------|----------------|
 |.---------------|----8-8-8-8--8-8-8-8--.|----------------|
 |----------------|----7-7-7-7--7-7-7-7---|----------------|
 |--5------4------|-----------------------|----------------|
 |.-3------2------|----7-7-7-7--7-7-7-7--.|-5---4---3------|
 |----------------|-0---------------------|----------------|

guitar solo, with dist. & chorus
 
 |-------------------|------------------|--------------------------------|
 |-------------------|------------------|--------------------------------|
 |-/11------12-11-12-|----15---(15)\12--|-11h12p11\9/11--(11)\9\8----9p8-|
 |-------------------|------------------|--------------------------------|
 |-------------------|------------------|--------------------------------|
 |-------------------|------------------|--------------------------------|
 |------------------|--------------------------------|-------------------------------|
 |------------------|--------------------------------|-------------------------------|
 |-(8)p5------8---5-|-8-5h8p5\4-(4)/8-5/8--9p8h9p8h9-|-(9)/12--(12)\11--(11)\9---8h9-|
 |------------------|--------------------------------|-------------------------------|
 |------------------|--------------------------------|-------------------------------|
 |------------------|--------------------------------|-------------------------------|
 |--------------------|---------------------------|
 |--------------------|---------------------------|
 |-(9)p8--------(8)\1-|-(1)/7---6---5--(5)/20\----|
 |--------------------|---------------------------|
 |--------------------|---------------------------|
 |--------------------|---------------------------|

there's an acoustic guitar playing some chords behind the solo...
and those chords are B7 an C7. the strumming rhythm is quite easy, kind of
indianish :)
and on the last bar the acoustic guitar plays D, Db, C notes from 5th fret.
interlude, with talk-box
harm.-1
 
 |----------------|----------------|----------------|----------------|
 |----------------|----------------|----------------|----------------|
 |----------------|----------------|----------------|----------------|
 |----------------|----------------|----------------|--------5\--/---|
 |----------------|-----3-(3)b-----|----------------|----------\/----|
 |-2----------0-2-|----------------|-2----------0-2-|-(2)------------|

[-1]  
 
 |----------------|----------------|----------------|----------------|
 |----------------|----------------|----------------|----------------|
 |----------------|----------------|----------------|----------------|
 |----------------|----------------|----------------|----------------|
 |----------------|-----3-(3)b-----|----------------|----------------|
 |-2----------0-2-|----------------|-2----------0-2-|-(2)----0\------|

that's it. not difficult at all.
all you need is talk-box effect, which is kind of shitty.
well, otherwise it's a cool song to play.
and that cool chord in the chorus is called Em7.
thanks.
12. Shallow Be Thy Game
Transcribed by: Ceithre
Tuning: Standard
Intro:
(I Didn't bother with the timing)
4x
 
 e|--------------------------------------------------------------------|
 b|--------------------------------------------------------------------|
 g|--------------------------------------------------------------------|
 d|--------------------------------------------------------------------|
 a|--10--12--10--10--12--10--------------------------------------------|
 e|--------------------------------------------------------------------|

E5 B5 E5 B5 2x
 
 e|--------------------------------------------------------------------|
 b|--------------------------------------------------------------------|
 g|-------------14--------------14-------------------------------------|
 d|---14--------14------14------14-------------------------------------|
 a|---14--------12------14------12-------------------------------------|
 e|---12----------------12---------------------------------------------|

Verse:
[G5] [G5] [G5] [G5] [B5]  
 
 e|--------------------------------------------------------------------|
 b|--------------------------------------------------------------------|
 g|--------12----------12--------12----------12--14--------------------|
 d|--------12----------12--------12----------12--14--------------------|
 a|--------10----------10--------10----------10--12--------------------|
 e|-12-0-------10-12-------0-12------10-12-----------------------------|

In between the verses Dave Narvarro plays some wierd solo that I couldn't figure out
but ther is no point playing every note exactly!
Chorus:
[E5] [D5] [A5] [E5] [D5] [A5]  
 
 e|--------------------------------------------------------------------|
 b|--------------------------------------------------------------------|
 g|------9----7---------9----7-----------------------------------------|
 d|------9----7----7----9----7----7------------------------------------|
 a|------7----5----7----7----5----7------------------------------------|
 e|----------------5--------------5------------------------------------|

In the chorus try using an up, down, up, down strumming technique!
Repeat Verse
Repeat Chorus
Repeat second part of the intro
Again for the solo it is a complicated one so I wasn't able to tab it!
Try using amade up one that will fit!
Repeat first part of the verse
Repeat chorus 2x
Outro:
8x
 
 e|--------------------------------------------------------------------|
 b|--------------------------------------------------------------------|
 g|--------15----14----------------------------------------------------|
 d|--------15----14----------------------------------------------------|
 a|--------13----12----------------------------------------------------|
 e|---0-12-------------------------------------------------------------|

Tnen just finish on E5 on the 5th fret and were done!
13. Transcending
Transcribed by Nobbru
Words by Anthony Kiedis Music by Red Hot Chili Peppers
Arranged by Red Hot Chili Peppers
Gtr I (E A D G B E) - 'Dave Navarro'
Gtr II (E A D G B E) - 'Dave Navarro'
Gtr III (E A D G B E) - 'Dave Navarro'
Intro & Verse
Q=90
[4/4] Gtr I
 
 |------------------------------------------|
 |------------------------------------------|
 |------------------------------------------|
 |-9s11-11-11-(11)-11-11-11s9-9-9-9-9-9-9-9-|
 |-7s=9--9--9--(9)--9--9--9s7-7-7-7-7-7-7-7-|
 |------------------------------------------|
 |--------------------------------------------------|
 |--------------------------------------------------|
 |--------------------------------------------------|
 |-9s11-11-11-(11)-11-11-11-(11)-11s14-14-14-14-14\-|
 |-7s=9--9--9--(9)--9--9--9--(9)--9s12-12-12-12-12\-|
 |--------------------------------------------------|
 |------------------------------------------|
 |------------------------------------------|
 |------------------------------------------|
 |-9s11-11-11-(11)-11-11-11s9-9-9-9-9-9-9-9-|
 |-7s=9--9--9--(9)--9--9--9s7-7-7-7-7-7-7-7-|
 |------------------------------------------|
 |---------------------------------------|
 |---------------------------------------|
 |---------------------------------------|
 |-9s11-11-11-11-11-11-11----------------|
 |-7s=9--9--9--9--9--9--9--9-9-9-9-9-9-9-|
 |-------------------------7-7-7-7-7-7-7-|
 |------------------------------------------|
 |------------------------------------------|
 |------------------------------------------|
 |-9s11-11-11-(11)-11-11-11s9-9-9-9-9-9-9-9-|
 |-7s=9--9--9--(9)--9--9--9s7-7-7-7-7-7-7-7-|
 |------------------------------------------|
 |--------------------------------------------------|
 |--------------------------------------------------|
 |--------------------------------------------------|
 |-9s11-11-11-(11)-11-11-11-(11)-11s14-14-14-14-14\-|
 |-7s=9--9--9--(9)--9--9--9--(9)--9s12-12-12-12-12\-|
 |--------------------------------------------------|
 |------------------------------------------|
 |------------------------------------------|
 |------------------------------------------|
 |-9s11-11-11-(11)-11-11-11s9-9-9-9-9-9-9-9-|
 |-7s=9--9--9--(9)--9--9--9s7-7-7-7-7-7-7-7-|
 |------------------------------------------|
 |---------------------------------------|
 |---------------------------------------|
 |---------------------------------------|
 |-9s11-11-11-11-11-11-11----------------|
 |-7s=9--9--9--9--9--9--9--9-9-9-7-7-7-7-|
 |-------------------------7-7-7-5-5-5-5-|
 |------------------------------------------|
 |------------------------------------------|
 |------------------------------------------|
 |-9s11-11-11-(11)-11-11-11s9-9-9-9-9-9-9-9-|
 |-7s=9--9--9--(9)--9--9--9s7-7-7-7-7-7-7-7-|
 |------------------------------------------|
 |--------------------------------------------------|
 |--------------------------------------------------|
 |--------------------------------------------------|
 |-9s11-11-11-(11)-11-11-11-(11)-11s14-14-14-14-14\-|
 |-7s=9--9--9--(9)--9--9--9--(9)--9s12-12-12-12-12\-|
 |--------------------------------------------------|
 |------------------------------------------|
 |------------------------------------------|
 |------------------------------------------|
 |-9s11-11-11-(11)-11-11-11s9-9-9-9-9-9-9-9-|
 |-7s=9--9--9--(9)--9--9--9s7-7-7-7-7-7-7-7-|
 |------------------------------------------|
 |---------------------------------------|
 |---------------------------------------|
 |---------------------------------------|
 |-9s11-11-11-11-11-11-11----------------|
 |-7s=9--9--9--9--9--9--9--9-9-9-7-7-7-7-|
 |-------------------------7-7-7-5-5-5-5-|

Pre-Chorus
Gtr II
 
 |---------------------------------------------|
 |---------------------------------------------|
 |-9s11-11-11-11--11--11-11-11-9-9-9-9-8-8-8-8-|
 |---------------------------------------------|
 |-7s=9--9--9--9---9---9--9--9-7-7-7-7-6-6-6-6-|
 |---------------------------------------------|

|
| Gtr I
 
 |---------------------------------------------|
 |---------------------------------------------|
 |---------------------------------------------|
 |-9s===11-11-11-(11)-11-11-11s9-9-9-9-9-9-9-9-|
 |-7s====9--9--9--(9)--9--9--9s7-7-7-7-7-7-7-7-|
 |---------------------------------------------|
 |-----------------------------------------------------|
 |-----------------------------------------------------|
 |-8s=9--9--9---9---9--9--9---9---9s=6--6--6s=8--8--8--|
 |-----------------------------------------------------|
 |-6s=7--7--7---7---7--7--7---7---7s=4--4--4s=6--6--6--|
 |-----------------------------------------------------|

|
 
 |-----------------------------------------------------|
 |-----------------------------------------------------|
 |-----------------------------------------------------|
 |-9s11-11-11-(11)-11-11-11-(11)-11s14-14-14-14-14\----|
 |-7s=9--9--9--(9)--9--9--9--(9)--9s12-12-12-12-12\----|
 |-----------------------------------------------------|
 |------------------------------------------|
 |------------------------------------------|
 |-8s11-11-11--11--11-11-11s9-9-9-9s8-8-8-8-|
 |------------------------------------------|
 |-6s=9--9--9---9---9--9--9s7-7-7-7s6-6-6-6-|
 |------------------------------------------|

|
 
 |------------------------------------------|
 |------------------------------------------|
 |------------------------------------------|
 |-9s11-11-11-(11)-11-11-11s9-9-9-9-9-9-9-9-|
 |-7s=9--9--9--(9)--9--9--9s7-7-7-7-7-7-7-7-|
 |------------------------------------------|
 |----------------------------------------|
 |----------------------------------------|
 |-8s=9--9--9--9--9--9--9s6-6-6-6s4-4-4-4-|
 |----------------------------------------|
 |-6s=7--7--7--7--7--7--7s4-4-4-4s2-2-2-2-|
 |----------------------------------------|

|
 
 |----------------------------------------|
 |----------------------------------------|
 |----------------------------------------|
 |-9s11-11-11-11-11-11-11-----------------|
 |-7s=9--9--9--9--9--9--9---9-9-9-9-9-7-7-|
 |--------------------------7-7-7-7-7-5-5-|

Chorus
Gtr I
~~
 
 |------------------------------------|---------------------------------|
 |------------------------------------|---------------------------------|
 |-------------9h11-------------------|---------------------------------|
 |---9h11-(11)------9h11---11p9-------|-------7----------9--------------|
 |-9---------------------9------9-7---|---9------------9------11p9----0-|
 |----------------------------------9-|-7---7---7h9S11-----11------11---|

~~
 
 |------------------------------------|---------------------------------|
 |------------------------------------|---------------------------------|
 |-------------9h11-------------------|---------------------------------|
 |---9h11-(11)------9h11---11p9-------|-------7----------9--------------|
 |-9---------------------9------9-7---|---9------------9------11p9----0-|
 |----------------------------------9-|-7---7---7h9S11-----11------11---|

~~
 
 |------------------------------------|---------------------------------|
 |------------------------------------|---------------------------------|
 |-------------9h11-------------------|---------------------------------|
 |---9h11-(11)------9h11---11p9-------|-------7----------9--------------|
 |-9---------------------9------9-7---|---9------------9------11p9----0-|
 |----------------------------------9-|-7---7---7h9S11-----11------11---|

~~
 
 |------------------------------------|---------------------------------|
 |------------------------------------|---------------------------------|
 |-------------9h11------9------------|---------------------------------|
 |---9h11-(11)------9h11---11p9-------|-------7----------9--------------|
 |-9---------------------9------9-7---|---9------------9------11p9----0-|
 |----------------------------------9-|-7---7---7h9S11-----11------11---|

Verse
 
 |------------------------------------------|
 |------------------------------------------|
 |------------------------------------------|
 |-9s11-11-11-(11)-11-11-11s9-9-9-9-9-9-9-9-|
 |-7s=9--9--9--(9)--9--9--9s7-7-7-7-7-7-7-7-|
 |------------------------------------------|
 |--------------------------------------------------|
 |--------------------------------------------------|
 |--------------------------------------------------|
 |-9s11-11-11-(11)-11-11-11-(11)-11s14-14-14-14-14\-|
 |-7s=9--9--9--(9)--9--9--9--(9)--9s12-12-12-12-12\-|
 |--------------------------------------------------|
 |------------------------------------------|
 |------------------------------------------|
 |------------------------------------------|
 |-9s11-11-11-(11)-11-11-11s9-9-9-9-9-9-9-9-|
 |-7s=9--9--9--(9)--9--9--9s7-7-7-7-7-7-7-7-|
 |------------------------------------------|
 |---------------------------------------|
 |---------------------------------------|
 |---------------------------------------|
 |-9s11-11-11-11-11-11-11----------------|
 |-7s=9--9--9--9--9--9--9--9-9-9-9-9-9-9-|
 |-------------------------7-7-7-7-7-7-7-|
 |------------------------------------------|
 |------------------------------------------|
 |------------------------------------------|
 |-9s11-11-11-(11)-11-11-11s9-9-9-9-9-9-9-9-|
 |-7s=9--9--9--(9)--9--9--9s7-7-7-7-7-7-7-7-|
 |------------------------------------------|
 |--------------------------------------------------|
 |--------------------------------------------------|
 |--------------------------------------------------|
 |-9s11-11-11-(11)-11-11-11-(11)-11s14-14-14-14-14\-|
 |-7s=9--9--9--(9)--9--9--9--(9)--9s12-12-12-12-12\-|
 |--------------------------------------------------|
 |------------------------------------------|
 |------------------------------------------|
 |------------------------------------------|
 |-9s11-11-11-(11)-11-11-11s9-9-9-9-9-9-9-9-|
 |-7s=9--9--9--(9)--9--9--9s7-7-7-7-7-7-7-7-|
 |------------------------------------------|
 |---------------------------------------|
 |---------------------------------------|
 |---------------------------------------|
 |-9s11-11-11-11-11-11-11----------------|
 |-7s=9--9--9--9--9--9--9--9-9-9-9-9-9-9-|
 |-------------------------7-7-7-7-7-7-7-|
 |------------------------------------------|
 |------------------------------------------|
 |------------------------------------------|
 |-9s11-11-11-(11)-11-11-11s9-9-9-9-9-9-9-9-|
 |-7s=9--9--9--(9)--9--9--9s7-7-7-7-7-7-7-7-|
 |------------------------------------------|
 |--------------------------------------------------|
 |--------------------------------------------------|
 |--------------------------------------------------|
 |-9s11-11-11-(11)-11-11-11-(11)-11s14-14-14-14-14\-|
 |-7s=9--9--9--(9)--9--9--9--(9)--9s12-12-12-12-12\-|
 |--------------------------------------------------|
 |------------------------------------------|
 |------------------------------------------|
 |------------------------------------------|
 |-9s11-11-11-(11)-11-11-11s9-9-9-9-9-9-9-9-|
 |-7s=9--9--9--(9)--9--9--9s7-7-7-7-7-7-7-7-|
 |------------------------------------------|
 |---------------------------------------|
 |---------------------------------------|
 |---------------------------------------|
 |-9s11-11-11-11-11-11-11----------------|
 |-7s=9--9--9--9--9--9--9--9-9-9-9-9-9-9-|
 |-------------------------7-7-7-7-7-7-7-|

Pre-chorus 2
Gtr II
 
 |---------------------------------------------|
 |---------------------------------------------|
 |-9s11-11-11-11--11--11-11-11-9-9-9-9-8-8-8-8-|
 |---------------------------------------------|
 |-7s=9--9--9--9---9---9--9--9-7-7-7-7-6-6-6-6-|
 |---------------------------------------------|

|
| Gtr I
 
 |---------------------------------------------|
 |---------------------------------------------|
 |---------------------------------------------|
 |-9s===11-11-11-(11)-11-11-11s9-9-9-9-9-9-9-9-|
 |-7s====9--9--9--(9)--9--9--9s7-7-7-7-7-7-7-7-|
 |---------------------------------------------|
 |-----------------------------------------------------|
 |-----------------------------------------------------|
 |-8s=9--9--9---9---9--9--9---9---9s=6--6--6s=8--8--8--|
 |-----------------------------------------------------|
 |-6s=7--7--7---7---7--7--7---7---7s=4--4--4s=6--6--6--|
 |-----------------------------------------------------|

|
 
 |-----------------------------------------------------|
 |-----------------------------------------------------|
 |-----------------------------------------------------|
 |-9s11-11-11-(11)-11-11-11-(11)-11s14-14-14-14-14\----|
 |-7s=9--9--9--(9)--9--9--9--(9)--9s12-12-12-12-12\----|
 |-----------------------------------------------------|
 |------------------------------------------|
 |------------------------------------------|
 |-8s11-11-11--11--11-11-11s9-9-9-9s8-8-8-8-|
 |------------------------------------------|
 |-6s=9--9--9---9---9--9--9s7-7-7-7s6-6-6-6-|
 |------------------------------------------|

|
 
 |------------------------------------------|
 |------------------------------------------|
 |------------------------------------------|
 |-9s11-11-11-(11)-11-11-11s9-9-9-9-9-9-9-9-|
 |-7s=9--9--9--(9)--9--9--9s7-7-7-7-7-7-7-7-|
 |------------------------------------------|
 |----------------------------------------|
 |----------------------------------------|
 |-8s=9--9--9--9--9--9--9s6-6-6-6s4-4-4-4-|
 |----------------------------------------|
 |-6s=7--7--7--7--7--7--7s4-4-4-4s2-2-2-2-|
 |----------------------------------------|

|
 
 |----------------------------------------|
 |----------------------------------------|
 |----------------------------------------|
 |-9s11-11-11-11-11-11-11-----------------|
 |-7s=9--9--9--9--9--9--9---9-9-9-9-9-9-9-|
 |--------------------------7-7-7-7-7-7-7-|

Chorus
Gtr I
~~
 
 |------------------------------------|---------------------------------|
 |------------------------------------|---------------------------------|
 |-------------9h11-------------------|---------------------------------|
 |---9h11-(11)------9h11---11p9-------|-------7----------9--------------|
 |-9---------------------9------9-7---|---9------------9------11p9----0-|
 |----------------------------------9-|-7---7---7h9S11-----11------11---|

~~
 
 |------------------------------------|---------------------------------|
 |------------------------------------|---------------------------------|
 |-------------9h11-------------------|---------------------------------|
 |---9h11-(11)------9h11---11p9-------|-------7----------9--------------|
 |-9---------------------9------9-7---|---9------------9------11p9----0-|
 |----------------------------------9-|-7---7---7h9S11-----11------11---|

~~
 
 |------------------------------------|---------------------------------|
 |------------------------------------|---------------------------------|
 |-------------9h11-------------------|---------------------------------|
 |---9h11-(11)------9h11---11p9-------|-------7----------9--------------|
 |-9---------------------9------9-7---|---9------------9------11p9----0-|
 |----------------------------------9-|-7---7---7h9S11-----11------11---|

~~
 
 |------------------------------------|---------------------------------|
 |------------------------------------|---------------------------------|
 |-------------9h11------9------------|---------------------------------|
 |---9h11-(11)------9h11---11p9-------|-------7----------9--------------|
 |-9---------------------9------9-7-

Important: The song above is NOT stored on the Chordie server. The original song is hosted at www.guitaretab.com. Chordie works as a search engine and provides on-the-fly formatting. Chordie does not index songs against artists'/composers' will. To remove this song please click here.

Text color:
Chord color:
Chord grids: 
Font size:    
Page size: 

A5 B5 D5 E E5 G5
Rate #1 of 1 versions

Login - add to songbook

SHARE PAGE  




You need to log in to post comments