Guitar Tabs, Chords and Lyrics
Major upgrade!! After one year development the new version of Chordie is now online! Please give feedback.


Katy Song  Red House Painters

Songs: Katy Song
Album: Red House Painters I
Tabbed by: Don Tago
Email: recebedou@yahoo.com
Standard Tuning (Capo I)
Chords:
EADGBe
Am: 002210
C: 032010
Cmaj:332010
Em: 022000
F: 133211
G: 320033
Riff 1: Played throughout all verses
[Cmaj] [F]  
 
 e|----------------------------------|
 B|-1p0-------------0----------------|
 G|---------------------2---2--------|
 D|-----2-----2---2---2-------3---3--|
 A|---------3---3---------------3----|
 E|-------3---------------1----------|

Verse 1 Chords:
[Cmaj] some e[F]scape some door to ope[Cmaj]n
this path seems the [F]blackest but I guess it's the soonest[Cmaj]
but there in the cle[F]aring I know you'll be wearing[Cmaj]
your young aching sm[F]ile and waving your hand
Chorus Chords:
[G] can't go with my h[F]eart when I can't feel what's in [G]it I
thought you'd come ov[F]er but for some reason you didn't
glass [Am] on the pave[Em]ment under my [F]shoe
without y[F]ou is all my li[G]fe amounts to[C]
Verse 2: use verse 1 Chords
a final sleep no words from my cutting
mouth to your ear or taut wicked pinches
from my fingers to your bitter face that i can't heal
Chorus Chords:
I know tomorrow you will be
somewhere in London living with someone
you've got some kind of family there to turn to
and that's more than I could ever give you
SOLO 1:
[C] [F] [C] [Am] [Em] [F]  
 
 e|---2--2-2-5--5--5-5/7-3--12-12-8-0--0-0-1------------------|
 B|------------------------------------------3--3-3-5-1-------| then,
 G|-----------------------------------------------------------|
 D|-----------------------------------------------------------|
 A|-----------------------------------------------------------|
 E|-----------------------------------------------------------|

[F] [C] [F]  
 
 e|-----------0--0-0---0--0--0-0-3--3--3-3-----|
 B|-1--1-1-1---------3-------------------------| then,
 G|-0--0-0-0-----------------------------------|
 D|--------------------------------------------|
 A|--------------------------------------------|
 E|--------------------------------------------|

[C] [F]  
 
 e|---3---------1----------|
 B|-----3-3--1--------0-0--| (play this line 5x)
 G|---------------2-2------|

Verse 3: Use verse 1 chords
A chance for calm
a hope for freedom
outlet from my cold solitary kingdom
by the forest of our spring stay
where you walked away
Chorus Chords:
and left a bleeding part of me
empty and bothered
watching the water
quiet in the corner
numb and falling through
without you what does my life amount to
SOLO 2:
[C] [F] [C] [Am] [Em] [F]  
 
 e|---2--2-2-5--5--5-5-6-7-3--12-12-8-0--0-0-1--------0-----------|
 B|--------------------------------------------3--3-3---1---------| then,
 G|---------------------------------------------------------------|
 D|---------------------------------------------------------------|
 A|---------------------------------------------------------------|
 E|---------------------------------------------------------------|

[F] [C] [F]  
 
 e|-----------0--0-0---0--0--0-0-3--3--3-3-----|
 B|-1--1-1-1---------3-------------------------|
 G|-0--0-0-0-----------------------------------|
 D|--------------------------------------------|
 A|--------------------------------------------|
 E|--------------------------------------------|

Outro: (repeat 6x, and fade out on 6th time)
[Am]Ah, bah, da, da, b[F]ah, da, rah, da, [C]da, rah, da, da, [G]bah, bah
[Am]Ah, bah, da, da, b[F]ah, da, rah, da, [C]da, rah, da, da, [G]bah, bah
Rah, da, bah, [F]bum

Important: The song above is NOT stored on the Chordie server. The original song is hosted at www.guitaretab.com. Chordie works as a search engine and provides on-the-fly formatting. Chordie does not index songs against artists'/composers' will. To remove this song please click here.

Text color:
Chord color:
Chord grids: 
Font size:    
Page size: 

Am C Cmaj Em F G
Rate #3 of 4 versions

Jango Player

Login - add to songbook

SHARE PAGE  




You need to log in to post comments