Guitar Tabs, Chords and Lyrics
Major upgrade!! After one year development the new version of Chordie is now online! Please give feedback.


Aldi   Red Warszawa

 
 -------------------------------------------------------------------------------

 


 SONG NAME - Band Name


 

 
 -------------------------------------------------------------------------------

 


 Tabbed by:Heavy-Freak!


 Email:slipomaniac@hotmail.com


 


 Ja, nu prøver jeg sgu igen!


 Håber det er til at forstå det jeg har lavet


 


 Tuning: Normal


 


 Intro


 

 
 e|---------------------------------------------------------------------------
 B|---------------------------------------------------------------------------
 G|---------------------------------------------------------------------------
 D|---------------------------------------------------------------3-3-5-5-----
 A|00--02320------233200--02320---320--00--02320-----233200--023203-3-5-5--x2-
 E|---------33--3--------------1-1---30----------33--3------------1-1-3-3-----

 


 


 Vers


 

 
 e|---------------------------------------------------------------------------
 B|---------------------------------------------------------------------------
 G|---------------------------------------------------------------------------
 D|2-----3-3-2------3-3-2------3-3-2------6-6-5-55555555556-6-5-5555555555----
 A|2-----3-3-2------3-3-2------3-3-2------6-6-5-55555555556-6-5-5555555555----
 E|0-----1-1-0------1-1-0------1-1-0------4-4-3-33333333334-4-3-3333333333----
 e|---------------------------------------------------------------------------
 B|---------------------------------------------------------------------------
 G|---------------------------------------------------------------------------
 D|6-6-5-55555555556-6-5-----------6-6----------------------------------------
 A|6-6-5-55555555556-6-5-55555555556-6----------------------------------------
 E|4-4-3-33333333334-4-3-33333333334-4----------------------------------------

 


 


 Omkvæd


 

 
 e|---------------------------------------------------------------------------
 B|---------------------------------------------------------------------------
 G|---------------------------------------------------------------------------
 D|7---------------7---------------7---------------7--------------------------
 A|7777777733335555777777773333555577777777333355557777777733335555-----------
 E|5555555511113333555555551111333355555555111133335555555511113333-----------
 PM.--------------- --------------- --------------- ---------------


Important: The song above is NOT stored on the Chordie server. The original song is hosted at www.guitaretab.com. Chordie works as a search engine and provides on-the-fly formatting. Chordie does not index songs against artists'/composers' will. To remove this song please click here.

This song is displayed as text-only. Transposing and tuning is only available for chordpro-songs.
Rate #1 of 2 versions

Jango Player

Login - add to songbook

SHARE PAGE  




You need to log in to post comments