Guitar Tabs, Chords and Lyrics
Server problems seems to be fixed. Chordie has been experiencing problems with songs disappearing. These issues now seems to be fixed, but still verifying the fix. If you find anything strange, please email admin@chordie.com.


A-W-E-S-O-M-E   Reel Big Fish

 
 |--------------|--------------|--------------|---------------|
 |--------------|--------------|--------------|---------------|
 |----9--7--x-6-|--7-----------|----9--7--x-6-|--7------------|
 |----9--7--x-6-|--7-----------|----9--7--x-6-|--7------------|
 |----7--5--x-4-|--5-----------|----7--5--x-4-|--5------------|
 |-0------------|-----0-5-3-0--|-0------------|-----0-5-3-5---|
 |-----------------------------|
 |-----------------------------|
 |-------9-------7-----x---6---|
 |-------9-------7-----x---6---|
 |-------7-------5-----x---4---|
 |-0---------------------------|

 


 |


 | Gtr III


 

 
 |-----------------------------|
 |-----------------------------|
 |-----------------------------|
 |-----------------------------|
 |-2-2-2-2-2-2-2-2-2-2-2-2-2-2-|
 |-0-0-0-0-0-0-0-0-0-0-0-0-0-0-|

 


 


 Gtr I


 

 
 |-------------------------------|---------------|--------|
 |-------------------------------|---------------|--------|
 |-(6)-7-------------------------|-9-9--6--9-6-7-|-(7)----|
 |-(6)-7-------------------------|-9-9--6--9-6-7-|-(7)----|
 |-(4)-5-------------------------|-7-7--4--7-4-5-|-(5)----|
 |-------------0---5-3---0-------|---------------|--------|

 


 |


 

 
 |-------------------------------|---------------|--------|
 |-------------------------------|---------------|--------|
 |-------------------------------|-9-9--6--9-6-7-|-(7)----|
 |-------------------------------|-9-9--6--9-6-7-|-(7)----|
 |--2--2-2-2-2-2-2-2-2-2-2-2-2-2-|-7-7--4--7-4-5-|-(5)----|
 |--0--0-0-0-0-0-0-0-0-0-0-0-0-0-|---------------|--------|

 


 


 Gtrs III, V


 

 
 |--------------|--------------|--------------|--------------|
 |--------------|--------------|--------------|--------------|
 |----9--7--x-6-|--7-----------|----9--7--x-6-|--7-----------|
 |----9--7--x-6-|--7-----------|----9--7--x-6-|--7-----------|
 |----7--5--x-4-|--5-----------|----7--5--x-4-|--5-----------|
 |-0------------|-----0-5-3-0--|-0------------|-----0-5-3-5--|

 


 


 Gtrs I, III


 

 
 |--------------|--------------|---------------|------------|--------------||
 |--------------|--------------|---------------|------------|--------------||
 |----9--7--x-6-|--7-----------|-9-9--6--9-6-7-|-(7)--------|-(7)----7--8--||
 |----9--7--x-6-|--7-----------|-9-9--6--9-6-7-|-(7)--------|-(7)----7--8--||
 |----7--5--x-4-|--5-----------|-7-7--4--7-4-5-|-(5)--------|-(5)----5--6--||
 |-0------------|-----0-5-3-0--|---------------|------------|--------------||

 


 


 Verse


 Gtrs I, III


 

 
 |---------------|---------------|---------------|---------------|
 |---------------|---------------|---------------|---------------|
 |-9-------------|---------------|---------------|---------------|
 |-9-------------|---------------|---------------|---------------|
 |-7-------------|---------------|---------------|---------------|
 |---------------|---------------|---------------|---------------|

 


 |


 | Gtr II


 

 
 |---------------|---------------|---------------|---------------|
 |---------------|---------------|---------------|---------------|
 |-9--x-x-9--x-7-|-x-9-x-14----x-|-9--x-x-9--x-7-|-x-9-x-14----x-|
 |-9--x-x-9--x-7-|-x-9-x-14----x-|-9--x-x-9--x-7-|-x-9-x-14----x-|
 |-7--x-x-7--x-5-|-x-7-x-12----x-|-7--x-x-7--x-5-|-x-7-x-12----x-|
 |---------------|---------------|---------------|---------------|

 


 


 Gtr II Gtr I


 

 
 |---------------|---------------|---------------|--------|
 |---------------|---------------|---------------|--------|
 |-9--x-x-9--x-7-|-x-9-x-14----x-|-9-9--6--9-6-7-|-(7)----|
 |-9--x-x-9--x-7-|-x-9-x-14----x-|-9-9--6--9-6-7-|-(7)----|
 |-7--x-x-7--x-5-|-x-7-x-12----x-|-7-7--4--7-4-5-|-(5)----|
 |---------------|---------------|---------------|--------|
 |---------------|---------------|---------------|---------------|
 |---------------|---------------|---------------|---------------|
 |-7-------------|---------------|---------------|---------------|
 |-7-------------|---------------|---------------|---------------|
 |-5-------------|---------------|---------------|---------------|
 |---------------|---------------|---------------|---------------|

 


 |


 | Gtr II


 

 
 |---------------|---------------|---------------|---------------|
 |---------------|---------------|---------------|---------------|
 |-9--x-x-9--x-7-|-x-9-x-14----x-|-9--x-x-9--x-7-|-x-9-x-14----x-|
 |-9--x-x-9--x-7-|-x-9-x-14----x-|-9--x-x-9--x-7-|-x-9-x-14----x-|
 |-7--x-x-7--x-5-|-x-7-x-12----x-|-7--x-x-7--x-5-|-x-7-x-12----x-|
 |---------------|---------------|---------------|---------------|

 


 


 Gtr II Gtr I


 

 
 |---------------|---------------|---------------|--------||
 |---------------|---------------|---------------|--------||
 |-9--x-x-9--x-7-|-x-9-x-14----x-|-9-9--6--9-6-7-|-(7)----||
 |-9--x-x-9--x-7-|-x-9-x-14----x-|-9-9--6--9-6-7-|-(7)----||
 |-7--x-x-7--x-5-|-x-7-x-12----x-|-7-7--4--7-4-5-|-(5)----||
 |---------------|---------------|---------------|--------||

 


 


 Pre-Chorus


 

 
 PM------------------------------------------------|
 |-----------------|-----------------|-----------------|--------------||
 |-----------------|-----------------|-----------------|--------------||
 |-----------------|-----------------|-----------------|--------------||
 |-----------------|-4-4-4-4-4-4-4-4-|-----------------|-7--6-7-9--9--||
 |-4-4-4-4-4-4-4-4-|-2-2-2-2-2-2-2-2-|-4-4-4-4-4-4-4-4-|-7--6-7-9--9--||
 |-2-2-2-2-2-2-2-2-|-----------------|-2-2-2-2-2-2-2-2-|-5--4-5-7--7--||

 


 


 Chorus


 

 
 PM------------|
 |-------------------|-----------------|-----------------|--------------|
 |-------------------|-----------------|-----------------|--------------|
 |--9----------------|-----------------|-----------------|--------------|
 |--9-----------6----|--7----------9\--|-----------------|-7--6-7-9--9--|
 |--7-----------6----|--7----------9\--|-4-4-4-4-4-4-4-4-|-7--6-7-9--9--|
 |--------------4----|--5----------7\--|-2-2-2-2-2-2-2-2-|-5--4-5-7--7--|

 


 |


 | Gtr III


 

 
 | PM------------|
 |-12--12--12--12-12-|-12--12--12------|-----------------|--------------|
 |-------------------|-----------------|-----------------|--------------|
 |--9---9---9---9--9-|--9---9---9------|-----------------|--------------|
 |-------------------|-------------9\--|-----------------|-7--6-7-9--9--|
 |-------------------|-------------9\--|-4-4-4-4-4-4-4-4-|-7--6-7-9--9--|
 |-------------------|-------------7\--|-2-2-2-2-2-2-2-2-|-5--4-5-7--7--|
 PM------------|
 |-------------------|-----------------|-----------------|--------------|
 |-------------------|-----------------|-----------------|--------------|
 |--9----------------|-----------------|-----------------|--------------|
 |--9-----------6----|--7----------9\--|-----------------|-7--6-7-9--9--|
 |--7-----------6----|--7----------9\--|-4-4-4-4-4-4-4-4-|-7--6-7-9--9--|
 |--------------4----|--5----------7\--|-2-2-2-2-2-2-2-2-|-5--4-5-7--7--|

 


 |


 

 
 | PM------------|
 |-12--12--12--12-12-|-12--12--12------|-----------------|--------------|
 |-10--10--10--10-10-|-10--10--10------|-----------------|--------------|
 |-------------------|-----------------|-----------------|--------------|
 |-------------------|-------------9\--|-----------------|-7--6-7-9--9--|
 |-------------------|-------------9\--|-4-4-4-4-4-4-4-4-|-7--6-7-9--9--|
 |-------------------|-------------7\--|-2-2-2-2-2-2-2-2-|-5--4-5-7--7--|

 


 


 Gtrs I, III


 

 
 PM------------------------------------------------|
 |-----------------|-----------------|-----------------|---------------|
 |-----------------|-----------------|-----------------|---------------|
 |-----------------|-----------------|-----------------|--6-7-9--9--9\-|
 |-9-9-9-9-9-9-9-9-|-6-6-6-6-6-6-6-6-|-5-5-5-5-5-5-5-5-|--6-7-9--9--9\-|
 |-7-7-7-7-7-7-7-7-|-4-4-4-4-4-4-4-4-|-3-3-3-3-3-3-3-3-|--4-5-7--7--7\-|
 |-----------------|-----------------|-----------------|---------------|

 


 


 Pre-Verse


 Gtr V


 

 
 |--------------|--------------|--------------|--------------|
 |--------------|--------------|--------------|--------------|
 |----9--7--x-6-|--7-----------|----9--7--x-6-|--7-----------|
 |----9--7--x-6-|--7-----------|----9--7--x-6-|--7-----------|
 |----7--5--x-4-|--5-----------|----7--5--x-4-|--5-----------|
 |-0------------|-----0-5-3-0--|-0------------|-----0-5-3-5--|

 


 


 Gtrs I, III


 

 
 |--------------|--------------|---------------|
 |--------------|--------------|---------------|
 |----9--7--x-6-|--7-----------|-9-9--6--9-6-7-|
 |----9--7--x-6-|--7-----------|-9-9--6--9-6-7-|
 |----7--5--x-4-|--5-----------|-7-7--4--7-4-5-|
 |-0------------|-----0-5-3-0--|---------------|
 PM----------------------|
 |-----------------|---------------|
 |-----------------|---------------|
 |-----------------|---------7--8--|
 |-7-7-7-7-7-7-7-7-|-7-7-7-7-7--8--|
 |-5-5-5-5-5-5-5-5-|-5-5-5-5-5--6--|
 |-----------------|---------------|

 


 


 Verse


 

 
 |---------------|---------------|---------------|------------------|
 |---------------|---------------|---------------|------------------|
 |-9-------------|---------------|---------------|------------------|
 |-9-------------|---------------|---------------|------------------|
 |-7-------------|---------------|---------------|------------------|
 |---------------|---------------|---------------|------------------|

 


 |


 | Gtr II


 

 
 |---------------|---------------|---------------|------------------|
 |---------------|---------------|---------------|------------------|
 |-9--x-x-9--x-7-|-x-9-x-14----x-|-9--x-x-9--x-7-|-x-9-x-14----(14)-|
 |-9--x-x-9--x-7-|-x-9-x-14----x-|-9--x-x-9--x-7-|-x-9-x-14----(14)-|
 |-7--x-x-7--x-5-|-x-7-x-12----x-|-7--x-x-7--x-5-|-x-7-x-12----(12)-|
 |---------------|---------------|---------------|------------------|

 


 


 Gtr II Gtr I


 

 
 PM------------|
 |---------------|---------------|---------------|-----------------|
 |---------------|---------------|---------------|-----------------|
 |-9--x-x-9--x-7-|-x-9-x-14----x-|-9-9--6--9-6-7-|-----------------|
 |-9--x-x-9--x-7-|-x-9-x-14----x-|-9-9--6--9-6-7-|-7-7-7-7-7-7-7-7-|
 |-7--x-x-7--x-5-|-x-7-x-12----x-|-7-7--4--7-4-5-|-5-5-5-5-5-5-5-5-|
 |---------------|---------------|---------------|-----------------|

 


 


 Pre-Chorus


 

 
 PM------------------------------------------------|
 |-----------------|-----------------|-----------------|--------------|
 |-----------------|-----------------|-----------------|--------------|
 |-----------------|-----------------|-----------------|--------------|
 |-----------------|-4-4-4-4-4-4-4-4-|-----------------|-7--6-7-9--9--|
 |-4-4-4-4-4-4-4-4-|-2-2-2-2-2-2-2-2-|-4-4-4-4-4-4-4-4-|-7--6-7-9--9--|
 |-2-2-2-2-2-2-2-2-|-----------------|-2-2-2-2-2-2-2-2-|-5--4-5-7--7--|

 


 


 Chorus


 Gtr I


 

 
 PM------------|
 |-------------------|-----------------|-----------------|--------------|
 |-------------------|-----------------|-----------------|--------------|
 |--9----------------|-----------------|-----------------|--------------|
 |--9-----------6----|--7----------9\--|-----------------|-7--6-7-9--9--|
 |--7-----------6----|--7----------9\--|-4-4-4-4-4-4-4-4-|-7--6-7-9--9--|
 |--------------4----|--5----------7\--|-2-2-2-2-2-2-2-2-|-5--4-5-7--7--|

 


 |


 | Gtr III


 

 
 | PM------------|
 |-12--12--12--12-12-|-12--12--12------|-----------------|--------------|
 |-------------------|-----------------|-----------------|--------------|
 |--9---9---9---9--9-|--9---9---9------|-----------------|--------------|
 |-------------------|-------------9\--|-----------------|-7--6-7-9--9--|
 |-------------------|-------------9\--|-4-4-4-4-4-4-4-4-|-7--6-7-9--9--|
 |-------------------|-------------7\--|-2-2-2-2-2-2-2-2-|-5--4-5-7--7--|
 PM------------|
 |-------------------|-----------------|-----------------|--------------|
 |-------------------|-----------------|-----------------|--------------|
 |--9----------------|-----------------|-----------------|--------------|
 |--9-----------6----|--7----------9\--|-----------------|-7--6-7-9--9--|
 |--7-----------6----|--7----------9\--|-4-4-4-4-4-4-4-4-|-7--6-7-9--9--|
 |--------------4----|--5----------7\--|-2-2-2-2-2-2-2-2-|-5--4-5-7--7--|

 


 |


 

 
 | PM------------|
 |-12--12--12--12-12-|-12--12--12------|-----------------|--------------|
 |-10--10--10--10-10-|-10--10--10------|-----------------|--------------|
 |-------------------|-----------------|-----------------|--------------|
 |-------------------|-------------9\--|-----------------|-7--6-7-9--9--|
 |-------------------|-------------9\--|-4-4-4-4-4-4-4-4-|-7--6-7-9--9--|
 |-------------------|-------------7\--|-2-2-2-2-2-2-2-2-|-5--4-5-7--7--|

 


 


 Gtrs I, III


 

 
 PM------------------------------------------------|
 |-----------------|-----------------|-----------------|---------------|
 |-----------------|-----------------|-----------------|---------------|
 |-----------------|-----------------|-----------------|--6-7-9--9--9\-|
 |-9-9-9-9-9-9-9-9-|-6-6-6-6-6-6-6-6-|-5-5-5-5-5-5-5-5-|--6-7-9--9--9\-|
 |-7-7-7-7-7-7-7-7-|-4-4-4-4-4-4-4-4-|-3-3-3-3-3-3-3-3-|--4-5-7--7--7\-|
 |-----------------|-----------------|-----------------|---------------|

 


 


 Interlude


 Gtr V


 

 
 |--------------|--------------|--------------|--------------|
 |--------------|--------------|--------------|--------------|
 |----9--7--x-6-|--7-----------|----9--7--x-6-|--7-----------|
 |----9--7--x-6-|--7-----------|----9--7--x-6-|--7-----------|
 |----7--5--x-4-|--5-----------|----7--5--x-4-|--5-----------|
 |-0------------|-----0-5-3-0--|-0------------|-----0-5-3-5--|

 


 


 "You're radical!"


 Gtr I


 

 
 |-------------|-----------------|-------------|-----------------|
 |-------------|-----------------|-------------|-----------------|
 |--4-4-6-6----|-----------------|--4-4-6-6----|-----------------|
 |--4-4-6-6----|-----------------|--4-4-6-6----|-----------------|
 |--2-2-4-4----|-----------------|--2-2-4-4----|-----------------|
 |-------------|-0-7-5-4-5-4-0-2-|-------------|-0-7-5-0-5-4-0-0-|

 


 |


 | Gtr III


 

 
 |-------------|-----------------|-------------|-----------------|
 |-------------|-----------------|-------------|-----------------|
 |--4-4-6-6----|---4-4-4-4-4-6-6-|--4-4-6-6----|---4-4-4-4-4-6-6-|
 |--4-4-6-6----|---4-4-4-4-4-6-6-|--4-4-6-6----|---4-4-4-4-4-6-6-|
 |--2-2-4-4----|---2-2-2-2-2-4-4-|--2-2-4-4----|---2-2-2-2-2-4-4-|
 |-------------|-----------------|-------------|-----------------|

 


 


 Gtr II Gtr I


 

 
 |-------------|-----------------|--------------|--------------------|
 |-------------|-----------------|--------------|--------------------|
 |--4-4-6-6----|-----------------|--4-4-6-6-----|--------------------|
 |--4-4-6-6----|-----------------|--4-4-6-6-----|--------------------|
 |--2-2-4-4----|-----------------|--2-2-4-4-----|--------------------|
 |-------------|-0-7-5-0-5-4-2-2-|--------------|-0-7-5-0-4-5-4-4s2--|

 


 |


 

 
 |-------------|-----------------|-----------5--|--------------------|
 |-------------|-----------------|-----------6--|--------------------|
 |--4-4-6-6----|---4-4-4-4-4-6-6-|-----------7--|---4-4-4-4-4-6---6--|
 |--4-4-6-6----|---4-4-4-4-4-6-6-|-----------7--|---4-4-4-4-4-6---6--|
 |--2-2-4-4----|---2-2-2-2-2-4-4-|-----------5--|---2-2-2-2-2-4---4--|
 |-------------|-----------------|--------------|--------------------|

 


 


 Gtrs I, III


 

 
 |---------------|---------------|---------------||
 |---------------|---------------|---------------||
 |---------------|---------------|---------------||
 |--5-5-5-5-7--7-|--5-5-5-5-7--7-|--5-5-5-5-7--7-||
 |--5-5-5-5-7--7-|--5-5-5-5-7--7-|--5-5-5-5-7--7-||
 |--3-3-3-3-5--5-|--3-3-3-3-5--5-|--3-3-3-3-5--5-||

 


 


 Chorus


 Gtr I


 

 
 PM------------|
 |-------------------|-----------------|-----------------|--------------|
 |-------------------|-----------------|-----------------|--------------|
 |--9----------------|-----------------|-----------------|--------------|
 |--9-----------6----|--7----------9\--|-----------------|-7--6-7-9--9--|
 |--7-----------6----|--7----------9\--|-4-4-4-4-4-4-4-4-|-7--6-7-9--9--|
 |--------------4----|--5----------7\--|-2-2-2-2-2-2-2-2-|-5--4-5-7--7--|

 


 |


 | Gtr III


 

 
 | PM------------|
 |-12--12--12--12-12-|-12--12--12------|-----------------|--------------|
 |-------------------|-----------------|-----------------|--------------|
 |--9---9---9---9--9-|--9---9---9------|-----------------|--------------|
 |-------------------|-------------9\--|-----------------|-7--6-7-9--9--|
 |-------------------|-------------9\--|-4-4-4-4-4-4-4-4-|-7--6-7-9--9--|
 |-------------------|-------------7\--|-2-2-2-2-2-2-2-2-|-5--4-5-7--7--|
 PM------------|
 |-------------------|-----------------|-----------------|--------------|
 |-------------------|-----------------|-----------------|--------------|
 |--9----------------|-----------------|-----------------|--------------|
 |--9-----------6----|--7----------9\--|-----------------|-7--6-7-9--9--|
 |--7-----------6----|--7----------9\--|-4-4-4-4-4-4-4-4-|-7--6-7-9--9--|
 |--------------4----|--5----------7\--|-2-2-2-2-2-2-2-2-|-5--4-5-7--7--|

 


 |


 

 
 | PM------------|
 |-12--12--12--12-12-|-12--12--12------|-----------------|--------------|
 |-10--10--10--10-10-|-10--10--10------|-----------------|--------------|
 |-------------------|-----------------|-----------------|--------------|
 |-------------------|-------------9\--|-----------------|-7--6-7-9--9--|
 |-------------------|-------------9\--|-4-4-4-4-4-4-4-4-|-7--6-7-9--9--|
 |-------------------|-------------7\--|-2-2-2-2-2-2-2-2-|-5--4-5-7--7--|

 


 


 Gtrs I, III


 

 
 PM------------------------------------------------|
 |-----------------|-----------------|-----------------|-------------|
 |-----------------|-----------------|-----------------|-------------|
 |-----------------|-----------------|-----------------|--6-7-9-9----|
 |-9-9-9-9-9-9-9-9-|-6-6-6-6-6-6-6-6-|-5-5-5-5-5-5-5-5-|--6-7-9-9----|
 |-7-7-7-7-7-7-7-7-|-4-4-4-4-4-4-4-4-|-3-3-3-3-3-3-3-3-|--4-5-7-7----|
 |-----------------|-----------------|-----------------|-------------|
 ||------------------|-----------------|
 ||o-----------------|-----------------|
 ||------------------|-----------------|
 ||--9-9-9-9-9-9-9-8-|-9-9-9-9-9-9-9-8-|
 ||o-7-7-7-7-7-7-7-6-|-7-7-7-7-7-7-7-6-|
 ||------------------|-----------------|
 |-------------------------|---------------------||
 |-------------------------|--------------------o||
 |-------------------------|---------------------||
 |-11-11-11-11-11-11-11-11-|-14--13-14-16--16----||
 |--9--9--9--9--9--9--9--9-|-12--11-12-14--14---o||
 |-------------------------|---------------------||
 |-----------------|-----------------|-----------------|--------------|
 |-----------------|-----------------|-----------------|--------------|
 |-----------------|-----------------|-----------------|--6-7-9-9-9---|
 |-9-9-9-9-9-9-9-9-|-6-6-6-6-6-6-6-6-|-5-5-5-5-5-5-5-5-|--6-7-9-9-9---|
 |-7-7-7-7-7-7-7-7-|-4-4-4-4-4-4-4-4-|-3-3-3-3-3-3-3-3-|--4-5-7-7-7---|
 |-----------------|-----------------|-----------------|--------------|
 |--------------|--------------|
 |--------------|--------------|
 |--6-7-9--9--9-|--6-7-9--9--9-|
 |--6-7-9--9--9-|--6-7-9--9--9-|
 |--4-5-7--7--7-|--4-5-7--7--7-|
 |--------------|--------------|

 


 


 Outro


 Gtr V Gtrs I,[2/4] III


 

 
 |--------------|------------|------|
 |--------------|------------|------|
 |----9--7--x-6-|--7---------|------|
 |----9--7--x-6-|--7---7-5-7-|-2----|
 |----7--5--x-4-|--5---7-5-7-|-2----|
 |-0------------|----0-5-3-5-|-0----|


Important: The song above is NOT stored on the Chordie server. The original song is hosted at www.guitaretab.com. Chordie works as a search engine and provides on-the-fly formatting. Chordie does not index songs against artists'/composers' will. To remove this song please click here.

This song is displayed as text-only. Transposing and tuning is only available for chordpro-songs.
Rate #2 of 2 versions

Jango Player

Login - add to songbook

SHARE PAGE  




You need to log in to post comments