Guitar Tabs, Chords and Lyrics
Major upgrade!! After one year development the new version of Chordie is now online! Please give feedback.


We Care  Reel Big Fish

Reel Big Fish - We Care
Tabbed By: Bert
EMail: loser_guitarist@hotmail.com
album: Why Do They Rock So Hard?
palm muted, clean:
[G] [E] [C] [D]  
[D]Thanks for the m[G]oney, thanks for da[E]ncing
S[C]ingin along, and e[D]verything you do
[G] We just w[E]ant you to know we c[C]are
We c[D]are
distorted:
N.C. G E
Thanks for callin us sellouts and not takin a joke
[C]Talkin shit, c[D]overi[E]ng us[F#] with[G] spit
[G]We're so g[E]lad to know you [C]care
We c[D]are
[C] [B] [A] And we're sorry that s[C]o many people
[C] [B] [A] Got to enjo[C]y our music
[C] [B] [A] By hearing us [C]on the radio[D]
 
 E:--------------
 B:--------------
 G:-4-5-7-5----4-
 D:--------------
 A:--------------
 E:--------------

palm muted, distorted:
[G]We love you, [B]we love you, [E]because you [C]really [D]understand
[G]We love you, [B]we love you a [E]lot, we always [C]thought....[D].
[G] [F#] [E] [F#]  
b=bend
 
 e|-----------------------------------------------------------------|
 B|-----------------------------------------------------------------|
 G|-----------------------------------------------------------------|
 D|-12---9-10-12--5-------5-7b-7b---7------7-7-9-9-12b-10-9---------|
 A|-------------------5-7---------5---7-5---------------------------|
 E|-----------------------------------------------------------------|
 e|-15b-12----12--19b-19\----12-15-12-------------------------------|
 B|--------15-------------------------15-12-------------------------|
 G|-----------------------------------------14-16b------------------|
 D|------------------------------------------------12-12-12-12-14---|
 A|-----------------------------------------------------------------|
 E|-----------------------------------------------------------------|
 e|-----------------------------------------------------------------|
 B|-----------------------------------------------------------------|
 G|------------5-4---5--4-------------------------------------------|
 D|-----5-7b-5-----5-----5-------5-7b-5------------------5-7b-5-----|
 A|-5h7----------------------5h7--------7------------5h7------------|
 E|---------------------------------------8-7-8-7--3----------------|
 e|-----------------12b-10------------------------------|
 B|-8-8----8-8------------------------------------------|
 G|-----7------7----------------------------------------|
 D|-----------------------------------------------------|
 A|-----------------------------------------------------|
 E|-----------------------------------------------------|

clean, pick individual notes from chords:
N.C G E
And I'm not talking about everybody
[C] [D] [G] [G] [(] 

Important: The song above is NOT stored on the Chordie server. The original song is hosted at www.guitaretab.com. Chordie works as a search engine and provides on-the-fly formatting. Chordie does not index songs against artists'/composers' will. To remove this song please click here.

Text color:
Chord color:
Chord grids: 
Font size:    
Page size: 

A B C D E F# G
Rate #2 of 5 versions

Jango Player

Login - add to songbook

SHARE PAGE  




You need to log in to post comments