Guitar Tabs, Chords and Lyrics
Server problems seems to be fixed. Chordie has been experiencing problems with songs disappearing. These issues now seems to be fixed, but still verifying the fix. If you find anything strange, please email admin@chordie.com.


Let It All Out  Relient K

[MMBMM]2004
Tuned half-step down.
*Piano chord chart (tabbed for guitar) *- Base note played an octave lower.
[C(1)] [Em7] [Fadd9] [C(2)] [Am7] [G] [Em]  
 
 |-x-||-0-||-3-||-3-||-3-||-3-||-3-|
 |-1-||-3-||-1-||-1-||-1-||-0-||-0-|
 |-0-||-0-||-2-||-0-||-2-||-0-||-0-|
 |-2-||-2-||-3-||-2-||-2-||-0-||-2-|
 |-3-||-x-||-x-||-3-||-0-||-2-||-2-|
 |-x-||-x-||-1-||-x-||-x-||-3-||-0-|

Verse 1:
L[C(1)]et it all out. (Get it all out.)
Rip it [Em7]out, remove it.
Don't [Fadd9]be alarmed when the wound begins t[C(2)]o bleed.
'Cause we're so s[C(1)]cared to find [C(2)]out. (What this life's all about.)
So sc[Em7]ared we're gonna lose it,
But [Fadd9]knowing all along that's exactly w[C(2)]hat we need.
Pre-Chorus:
Fadd9 __
And today I'll trust you with the confidence |
Am7 G |
Of a man who's never known defeat. | The chords in this section I'll
Em Fadd9 |call Rhythm Figure 1
But tomorrow, upon hearing what I did, __|
I will s[Am7]tare at you in di[G]sbelief.
Oh, [Fadd9]inconsistent[Am7] me,[G]
[Em]Crying o[Fadd9]ut for cons[G]istency.
This is the second piano in the Pre-Chorus
Piano arranged for Guitar
 
 Eb|-----------12---17---|-15---12-------------|-------------------|--------------------|
 Bb|-10---13----x----x---|--x----x---12---13---|----------10-------|--------------------|
 Gb|-x-----x----9---14---|-12----9----x----x---|-12---9----x---9---|-12---9-------------|
 Db|--7---10-------------|------------9---10---|--x---x----7---x---|--x---x---9---10----|
 Ab|---------------------|---------------------|-10---7--------7---|-10---7---x----x----|
 Eb|---------------------|---------------------|-------------------|----------7----8----|

I'll[A] call [C]these[E] next[A] four m[G]easur[E]es "R[B]iff A[C]"[G] [E] [C] [E] [G] [E] [B] [C]
 
 Eb|-----------12---17---|-15---12-------------|-------------------|--------------------|
 Bb|-10---13----x----x---|--x----x---12---13---|----------10-------|--------------------|
 Gb|--x----x----9---14---|-12----9----x----x---|-12---9----x---9---|-7------------------|
 Db|--7---10-------------|------------9---10---|--x---x----7---x---|-x------------------|
 Ab|---------------------|---------------------|-10---7--------7---|-5------------------|
 Eb|---------------------|---------------------|-------------------|--------------------| 

Choru[A]s:[C] [E] [A] [G] [E] [B] [C] [G] [E] [C] [E] [D]
And you said I know that this will hurt,
 
 Eb|-3-----3-----|-3-----3-----|-3-----3-----|-3-----3-----|
 Bb|---1-----1---|---1-----0---|---1-----1---|---1-----1---|
 Gb|-----0-----0-|-----0-----0-|-----2-----2-|-----2-----2-|---- Call this "Riff B"
 Db|-------------|-------------|-------------|-------------|
 Ab|-3-----------|-0-----------|-------------|-------------|
 Eb|-------3-----|-------0-----|-1-----------|-------------|

(Play Riff B two more times)
C Gsus4 Am7 Em ---- Implied harmony from piano until
But if I don't break your heart |
Fadd9 |
Then things will get much worse. here |
 
 C Gsus4 Am7 Em Fadd9 -------------------------------

If the burden seems too much to bear,
Am7 G Em Fadd9 G C ---- Consult with the piano
Remember, the end will justify the pain it took to get us there. chord chart.
Verse 2: Same chords as the first verse.
And I'll let it be known. (Times I have shown.)
Signs of all my weakness.
But somewhere in me there is strength.
And you promise me (That you believe.)
In time I will defeat this,
'Cause somehwere in me there is strength.
Pre-Chorus 2: (One piano with Rhythm Figure 1 and another piano with Riff A)
And today I'll trust you with the confidence
Of a man who's never known defeat.
And I'll try my best to just forget
G (Piano playing Rhythm Figure 1)
That that man isn't me.
Chorus: (Play Riff B an octave higher 3 times)
And you said I know that this will hurt,
But if I don't break your heart,
Then things will just get worse.
If the burden seems too much to bear,
Remember[Am7], the end will j[G]ustify the p[Em]ain it [Fadd9]took to g[G]et us
(Riff B 3 times)
(there..........................I know this will hurt...)
You said I know that this will hurt,
(..............................)
But if I don't break your heart
(....Things will get untrue...)
Then things will just get worse.
(...............................Seems too much to, oh...)
When the burden seems too much to bear,
(.................................)
Remember, the end will justify the pain it took to get us there.
I'm not going to bother with the outro.

Important: The song above is NOT stored on the Chordie server. The original song is hosted at www.guitaretab.com. Chordie works as a search engine and provides on-the-fly formatting. Chordie does not index songs against artists'/composers' will. To remove this song please click here.

Text color:
Chord color:
Chord grids: 
Font size:    
Page size: 

A Am7 B C C(2) D E Em Em7 Fadd9 G
Rate #0 of 6 versions

Login - add to songbook

SHARE PAGE  




You need to log in to post comments