Guitar Tabs, Chords and Lyrics
Server problems seems to be fixed. Chordie has been experiencing problems with songs disappearing. These issues now seems to be fixed, but still verifying the fix. If you find anything strange, please email admin@chordie.com.


From End to End  Relient K

Intro: A10 16 times,A9 1nce, Em,Bm,D,C#,C,G
[Em]Excuse me, bu[Bm]t I?ve got a request[D]
Could you take the gag o[C#]ff of my mouth.
[Em]I admit[Bm] that I?m fairly impre[D]ssed
?Cause you?re the best at blockin[C#]g me out
[Em]I believe[Bm] that we weren?t quite done[D]
I know it?s hard to hear[C#] me out again.
[Em]I realize[Bm], you?re not the only one[D]
C# C,G,(-Break-)
Who?s terrified of life from end to end
[Em]Hey hey, can you hear anything I say, [C]
[G]I?m feeling unwanted , that?s not wh[D]at I wanted
And attenti[C]on to me is something you refuse to pay.[G]
A10-6 times?
A9-1nce
Cause I just can?t believe the way that this[G]
Conti[C]nues to go on.
[G]I say I wish you didn?t alw[Dsus2]ays think I?m wrong.[D] [-Em-Dsus2]
[C]So tell me, tell me what will It take[G]
To g[D]et this through your head[C]
And tell [C]me what will it take[G]
[D]Until you see things through from end to end[C] [Cmaj7] [C]
Riff1:C,Em,Bm,D,C,Em,D,C,G
[Em]Excuse me, b[Bm]ut isn?t this the way[D]
That things always turn into something[C#] good.
[Em]You?ve tried to ignor[Bm]e the things I say,[D]
C# C,G(-Break-)
But in the end you found you never could.
[Em]Hey hey, can you hear anything I say[C]
[G]You search for the short-cut, you live life [D]but for what
[C]I love you and hope you will find the truth some day.[G]
A10-6times?
A9-1nce
Cause I just can?t believe the way t[G]hat this
Continu[C]es to go on
[G]I say I wish you didn?t al[Dsus2]ways think I?m wrong[D] [-Em-Dsus2]
So tel[C]l me, tell me what will it take[G]
[D]To get this through your head[C]
And tell[C] me what will it take until y[G]ou see[D] things through from end to end.[C] [Cmaj7] [C]
 
 Riff 2: Em, Am, Em, Am-------G, Am, Em 4x and on last change back to G before the C.

[C]So tell me, tell me what will it take to get thi[G]s throug[D]h your head[C]
And tell me[C] what will it take[G]
[G]To get your on my good side agai[D]n[C]
[C]And tell me what will it take[G]
To g[D]et this through your head[C]
And tell [C]me what will it take[G]
(Refer to tab for this part)
To forget what you knew
Just let him find you
And then you?ll see things through from end to end
 
 E------------------------------------------------------------------------------------------------|
 B-------------------------------------------------------------------------------------------12---|
 G---------------------12-11-12-------------------12-11-12----------------------12-11-12----------|
 D 14-14-12-12-10-------------14-14-12-12-10-----------14-14-12-12-10-----------------------------|
 A---------------------------------------------------------------------------------------------14-|
 E------------------------------------------------------------------------------------------------|

Outro:
 
 E----3-3-3-2-0---------------------------------------------------------------------------------|
 B----3-3-3-3-0---------------------------------------------------------------------------------|
 G----0-0-0-0-0---------------------------------------------------------------------------------|
 D--------------2-------------------------------------------------------------------------------|
 A--------------2-------------------------------------------------------------------------------|
 E---------------0------------------------------------------------------------------------------|

If you want to get it ?perfect? listen to the cd put your gain on lvl 4 and palm
mute the verses: (also the riff?s probably aren?t exact but its close listen and make your own :D)
Have Fun!

Important: The song above is NOT stored on the Chordie server. The original song is hosted at www.guitaretab.com. Chordie works as a search engine and provides on-the-fly formatting. Chordie does not index songs against artists'/composers' will. To remove this song please click here.

Text color:
Chord color:
Chord grids: 
Font size:    
Page size: 

Bm C C# Cmaj7 D Dsus2 Em G
Rate #0 of 5 versions

Login - add to songbook

SHARE PAGE  




You need to log in to post comments