Guitar Tabs, Chords and Lyrics
Login is temporarily disabled for some users. Do not panic. Will be back in an hour or two. DO NOT REREGISTER!!


Candlelight  Relient K

This is the way i play the song on an acoustic guitar, i couldnt find a video of anyone
else playing the intro or anything so here how to play it. Everything is relative to the capo.
Capo @ 6
Intro Riff
Guitar 1
 
 e|-----------|-----------|-----------|-----------|
 b|-------0---|-------2---|-------4---|-------2---|
 G|---1-----1-|---1-----1-|---1-----1-|---1-----1-|
 D|-----------|-----------|-----------|-----------|
 A|-----------|-----------|-----------|-----------|
 E|-0---0-----|-0---0-----|-0---0-----|-0---0-----|
 e|-------0---|-------2---|-------4---|-------2---|
 b|---2-----2-|---2-----2-|---2-----2-|---2-----2-|
 G|-----------|-----------|-----------|-----------|
 D|-----------|-----------|-----------|-----------|
 A|-0---0-----|-0---0-----|-0---0-----|-0---0-----|
 E|-----------|-----------|-----------|-----------|

Intro Riff
Guitar 2 (starting at the second part of Guitar 1's Intro Riff)
[A2] [E] [A2]  
Verse 1
[E]To know her, is to love her, I'm going undercover
[A2]To catch a glimpse but not get caught[E]
But to see her, could be worse, If I don't get my head straight first
[A2]On second thought I guess I'll not[E]
Pre-Chorus 1
[Bb/C#]She's almost brighter than the s[A2]un
Seems to me to be un[E]fair
When you consider ever[Bb/C#]yone
Who pales when they co[A2]mpare, when they compare
Chorus
[E]Can?t hold a candle to her
Cause all the moths get in the w[A2]ay
And they?ll begin to chew her
Entire attire until it fr[E]ays
For she outshines anyone whoever might
[Bb/C#]Dare to bask in [A2]the same candleli[E]ght
Intro Riff
Verse 2
[E]Oh please don?t seat us in the back, With all the insects and the trash
[A2]She is a lady I?m the tra[E]mp
Collecting stares from pairs close by, Then flutters in a butterfly
[A2]Ew just a moth drawn to the l[E]amp
Pre-Chorus 2
[Bb/C#]She?s like an ancient artif[A2]act
Something you?re lucky to have f[E]ound
She?ll pinch the nerves in all the [Bb/C#]necks
When she turns those heads ar[A2]ound, those heads around
Chorus
Intro Riff 2x
Chorus
Chords:
[E] [A2] [Bb/C#]  
 
 e|-0-|-0-|--x--|
 B|-0-|-0-|--x--|
 G|-1-|-2-|--x--|
 D|-2-|-2-|--4--|
 A|-2-|-0-|--1--|
 E|-0-|---|-----|

Check out how i play it at http://www.youtube.com/watch?v=d52S-bs7jKY
Follow me on Twitter: @HRchoni
God Bless :)

Important: The song above is NOT stored on the Chordie server. The original song is hosted at www.guitaretab.com. Chordie works as a search engine and provides on-the-fly formatting. Chordie does not index songs against artists'/composers' will. To remove this song please click here.

Text color:
Chord color:
Chord grids: 
Font size:    
Page size: 

A2 Bb/C# E
Rate #1 of 6 versions

Jango Player

Login - add to songbook

SHARE PAGE  




You need to log in to post comments