Guitar Tabs, Chords and Lyrics
Server problems seems to be fixed. Chordie has been experiencing problems with songs disappearing. These issues now seems to be fixed, but still verifying the fix. If you find anything strange, please email admin@chordie.com.


Collapsible Lung  Relient K

The first version of this was wrong, different key maybe. anyways
Thanks to charmcgr for help with the intro
Intro/Verse
 
 e-------------------------------------------------------------|
 B------7---------0-------2--------------0---------------------|
 G-----7-7-7-----0-------2-2-2----------0----------------------|
 D----7---7-----0-----------2----------0-----------------------|
 A-------------------------------------------------------------|
 E--10---------3-------5--------------3------------------------|

Between the miles of open roads
I lost sight of what might matter the most
 
 e-------------------------------------------------------------|
 B------7---------0-------2--------------0-------2-------------|
 G-----7-7-7-----0-------2-2-2----------0-------2--------------|
 D----7---7-----0-----------2----------------------------------|
 A-------------------------------------------------------------|
 E--10---------3-------5--------------3-------5---------3------|

I stumbled into the great unknown and found
That time won't slow down
[D]  
[D]I'm getting [A]by with my [Bm]collapsible [A]lung
And it's a [G]good time 100 per[A]cent of the time and now
[D]Like a ladder with a [A]missing [Bm]rung
It's a [G]slow climb headed [A]back to the sky and now
[G]Felling backwards when I'm [A]trying the most
And I hop[Bm]e I haven't heard the last words from the [G]Holy [D/F#]Ghost
Cause I [C]think that I'm suppose to be[G] well on my [A]way by now[D]
[D]I do the [A]twist with my re[Bm]placeable [A]hips
And turn you [G]right round
Then dig you [A]down to the ground and now
[D]I wan't to grow old and rub your [A]tired [Bm]limbs
And take it [G]easy
A G (mute)
Until we whither away - Until we whither away
[D]Between the miles of [G]open roads
[A]I lost sight of what [G]might matter the most
[D]I stumbled into the [G]great unknown and [A]found
That [A]time can't slow down
[D]Take a breath and then [G]take it in
[A]To think places I'll [G]go I haven't been
[D]To pour my heart into [G]everything I've [A]found
[Bm]Time [A]won't slow [G]down
[G]I'm feeling backwards[A]
And I hope[Bm] I haven't heard the last words
[G]No no [D/F#]no
Cause [Em]I think that I'm suppose to be [G]well on my [A]way
[D] [-] [G] [-] [A] [-] [G]  
[D]To pour my heart into [G]everything I've [A]found
[D]Between the miles of [G]open roads
[A]I lost sight of what [G]might matter the most
[D]I stumbled into the [G]great unknown and [A]found
That [Bm]time [A]won't slow [G]down
 
 e-------------------------------------------------------------|
 B------7---------0-------2--------------0---------------------|
 G-----7-7-7-----0-------2-2-2----------0----------------------|
 D----7---7-----0-----------2----------0-----------------------|
 A-------------------------------------------------------------|
 E--10---------3-------5--------------3------------------------|

So take a breath and then take it in
To think places I'll go I haven't been

Important: The song above is NOT stored on the Chordie server. The original song is hosted at www.guitaretab.com. Chordie works as a search engine and provides on-the-fly formatting. Chordie does not index songs against artists'/composers' will. To remove this song please click here.

Text color:
Chord color:
Chord grids: 
Font size:    
Page size: 

A Bm C D D/F# Em G
Rate #1 of 9 versions

Login - add to songbook

SHARE PAGE  




You need to log in to post comments